ISO-10303-21;
HEADER;
FILE_DESCRIPTION (( 'STEP AP203' ),
    '1' );
FILE_NAME ('379728.step',
    '2021-12-08T09:33:52',
    ( '' ),
    ( '' ),
    'SwSTEP 2.0',
    'SolidWorks 2019',
    '' );
FILE_SCHEMA (( 'CONFIG_CONTROL_DESIGN' ));
ENDSEC;

DATA;
#1 = ADVANCED_FACE ( 'NONE', ( #179 ), #181, .F. ) ;
#2 = DIRECTION ( 'NONE',  ( 0.0000000000000000000, 0.0000000000000000000, 1.000000000000000000 ) ) ;
#3 = FACE_OUTER_BOUND ( 'NONE', #59, .T. ) ;
#4 = LOCAL_TIME ( 10, 33, 52.00000000000000000, #143 ) ;
#5 = DIRECTION ( 'NONE',  ( 3.491481338843133355E-15, -1.224646799147353207E-16, 1.000000000000000000 ) ) ;
#6 = AXIS2_PLACEMENT_3D ( 'NONE', #45, #108, #75 ) ;
#7 = APPROVAL_ROLE ( '' ) ;
#8 = ORIENTED_EDGE ( 'NONE', *, *, #68, .F. ) ;
#9 = ADVANCED_BREP_SHAPE_REPRESENTATION ( '379728', ( #99, #28, #178 ), #79 ) ;
#10 = DIRECTION ( 'NONE',  ( 0.0000000000000000000, 1.000000000000000000, 0.0000000000000000000 ) ) ;
#11 = FACE_OUTER_BOUND ( 'NONE', #194, .T. ) ;
#12 = AXIS2_PLACEMENT_3D ( 'NONE', #106, #164, #10 ) ;
#13 = ADVANCED_FACE ( 'NONE', ( #113 ), #127, .F. ) ;
#14 = VERTEX_POINT ( 'NONE', #31 ) ;
#15 = PERSON_AND_ORGANIZATION_ROLE ( 'creator' ) ;
#16 = CONICAL_SURFACE ( 'NONE', #71, 2.400000000000001688, 0.7853981633974453924 ) ;
#17 = PERSON_AND_ORGANIZATION ( #37, #49 ) ;
#18 = COORDINATED_UNIVERSAL_TIME_OFFSET ( 1, 0, .AHEAD. ) ;
#19 = COORDINATED_UNIVERSAL_TIME_OFFSET ( 1, 0, .AHEAD. ) ;
#20 = AXIS2_PLACEMENT_3D ( 'NONE', #195, #90, #70 ) ;
#21 = ADVANCED_FACE ( 'NONE', ( #11, #145 ), #160, .T. ) ;
#22 = CARTESIAN_POINT ( 'NONE',  ( 4.189777606611760026E-14, -1.469576158976823947E-15, 12.00000000000000000 ) ) ;
#23 = APPROVAL_STATUS ( 'not_yet_approved' ) ;
#24 = DIRECTION ( 'NONE',  ( -3.491481338843133355E-15, 1.224646799147353207E-16, -1.000000000000000000 ) ) ;
#25 = CARTESIAN_POINT ( 'NONE',  ( 2.094888803305880013E-13, -7.347880794884118356E-15, 60.00000000000000000 ) ) ;
#26 = DIRECTION ( 'NONE',  ( 0.0000000000000000000, 1.000000000000000000, 0.0000000000000000000 ) ) ;
#27 = DIRECTION ( 'NONE',  ( 3.491481338843133355E-15, -1.224646799147353207E-16, 1.000000000000000000 ) ) ;
#28 = MANIFOLD_SOLID_BREP ( 'Corps-Déplacer/Copier1[2]', #91 ) ;
#29 = CC_DESIGN_APPROVAL ( #189, ( #64 ) ) ;
#30 = ADVANCED_FACE ( 'NONE', ( #162 ), #63, .T. ) ;
#31 = CARTESIAN_POINT ( 'NONE',  ( 2.073939915272820834E-13, 2.999999999999993783, 59.39999999999999147 ) ) ;
#32 = CARTESIAN_POINT ( 'NONE',  ( 0.0000000000000000000, 0.0000000000000000000, 0.0000000000000000000 ) ) ;
#33 = APPROVAL_DATE_TIME ( #69, #189 ) ;
#34 = CC_DESIGN_DATE_AND_TIME_ASSIGNMENT ( #155, #93, ( #142 ) ) ;
#35 = AXIS2_PLACEMENT_3D ( 'NONE', #25, #88, #26 ) ;
#36 = ORIENTED_EDGE ( 'NONE', *, *, #105, .F. ) ;
#37 = PERSON ( 'UNSPECIFIED', 'UNSPECIFIED', 'UNSPECIFIED', ('UNSPECIFIED'), ('UNSPECIFIED'), ('UNSPECIFIED') ) ;
#38 = CC_DESIGN_PERSON_AND_ORGANIZATION_ASSIGNMENT ( #67, #96, ( #171 ) ) ;
#39 = APPLICATION_CONTEXT ( 'configuration controlled 3d designs of mechanical parts and assemblies' ) ;
#40 = CALENDAR_DATE ( 2021, 8, 12 ) ;
#41 = DIRECTION ( 'NONE',  ( 4.275831445896958607E-31, 1.000000000000000000, 1.224646799147353207E-16 ) ) ;
#42 = DIRECTION ( 'NONE',  ( -3.491481338843133355E-15, 1.224646799147353207E-16, -1.000000000000000000 ) ) ;
#43 = DATE_TIME_ROLE ( 'classification_date' ) ;
#44 = CYLINDRICAL_SURFACE ( 'NONE', #20, 2.999999999999994671 ) ;
#45 = CARTESIAN_POINT ( 'NONE',  ( -1.068961779941895236E-30, 3.749413200789027806E-32, -3.061628220805799266E-16 ) ) ;
#46 = PRODUCT_RELATED_PRODUCT_CATEGORY ( 'detail', '', ( #171 ) ) ;
#47 = UNCERTAINTY_MEASURE_WITH_UNIT (LENGTH_MEASURE( 1.000000000000000082E-05 ), #137, 'distance_accuracy_value', 'NONE');
#48 = VERTEX_POINT ( 'NONE', #186 ) ;
#49 = ORGANIZATION ( 'UNSPECIFIED', 'UNSPECIFIED', '' ) ;
#50 = CC_DESIGN_DATE_AND_TIME_ASSIGNMENT ( #161, #43, ( #139 ) ) ;
#51 = CARTESIAN_POINT ( 'NONE',  ( 4.189777606611760026E-14, 2.999999999999993783, 12.00000000000000000 ) ) ;
#52 = PERSON_AND_ORGANIZATION ( #37, #49 ) ;
#53 = APPROVAL_ROLE ( '' ) ;
#54 = EDGE_LOOP ( 'NONE', ( #78 ) ) ;
#55 = CALENDAR_DATE ( 2021, 8, 12 ) ;
#56 = CIRCLE ( 'NONE', #169, 3.000000000000001332 ) ;
#57 = LOCAL_TIME ( 10, 33, 52.00000000000000000, #175 ) ;
#58 = CARTESIAN_POINT ( 'NONE',  ( 2.094888803305880013E-13, 1.799711739194219277E-32, 60.00000000000000000 ) ) ;
#59 = EDGE_LOOP ( 'NONE', ( #103 ) ) ;
#60 = DIRECTION ( 'NONE',  ( -3.491481338843133355E-15, 1.224646799147353207E-16, -1.000000000000000000 ) ) ;
#61 = FACE_OUTER_BOUND ( 'NONE', #128, .T. ) ;
#62 = AXIS2_PLACEMENT_3D ( 'NONE', #129, #27, #144 ) ;
#63 = PLANE ( 'NONE',  #62 ) ;
#64 = PRODUCT_DEFINITION_FORMATION_WITH_SPECIFIED_SOURCE ( 'ANY', '', #171, .NOT_KNOWN. ) ;
#65 = ORIENTED_EDGE ( 'NONE', *, *, #135, .F. ) ;
#66 = APPROVAL_DATE_TIME ( #156, #97 ) ;
#67 = PERSON_AND_ORGANIZATION ( #37, #49 ) ;
#68 = EDGE_CURVE ( 'NONE', #133, #133, #83, .T. ) ;
#69 = DATE_AND_TIME ( #84, #201 ) ;
#70 = DIRECTION ( 'NONE',  ( 4.275831445896959482E-31, 1.000000000000000000, 1.224646799147353207E-16 ) ) ;
#71 = AXIS2_PLACEMENT_3D ( 'NONE', #197, #117, #183 ) ;
#72 = EDGE_LOOP ( 'NONE', ( #118 ) ) ;
#73 = CARTESIAN_POINT ( 'NONE',  ( 2.073939915272820834E-13, -7.274401986935278213E-15, 59.39999999999999147 ) ) ;
#74 = FACE_BOUND ( 'NONE', #202, .T. ) ;
#75 = DIRECTION ( 'NONE',  ( 4.275831445896958607E-31, 1.000000000000000000, 1.224646799147353454E-16 ) ) ;
#76 = AXIS2_PLACEMENT_3D ( 'NONE', #58, #42, #41 ) ;
#77 = SECURITY_CLASSIFICATION_LEVEL ( 'unclassified' ) ;
#78 = ORIENTED_EDGE ( 'NONE', *, *, #148, .F. ) ;
#79 =( GEOMETRIC_REPRESENTATION_CONTEXT ( 3 ) GLOBAL_UNCERTAINTY_ASSIGNED_CONTEXT ( ( #47 ) ) GLOBAL_UNIT_ASSIGNED_CONTEXT ( ( #137, #190, #141 ) ) REPRESENTATION_CONTEXT ( 'NONE', 'WORKASPACE' ) );
#80 = COORDINATED_UNIVERSAL_TIME_OFFSET ( 1, 0, .AHEAD. ) ;
#81 = PERSON_AND_ORGANIZATION_ROLE ( 'creator' ) ;
#82 = CC_DESIGN_PERSON_AND_ORGANIZATION_ASSIGNMENT ( #188, #122, ( #64 ) ) ;
#83 = CIRCLE ( 'NONE', #198, 2.999999999999995115 ) ;
#84 = CALENDAR_DATE ( 2021, 8, 12 ) ;
#85 = SHAPE_DEFINITION_REPRESENTATION ( #136, #9 ) ;
#86 = DIRECTION ( 'NONE',  ( 0.0000000000000000000, 1.000000000000000000, 0.0000000000000000000 ) ) ;
#87 = PLANE ( 'NONE',  #132 ) ;
#88 = DIRECTION ( 'NONE',  ( -3.491481338843133355E-15, 1.224646799147353207E-16, -1.000000000000000000 ) ) ;
#89 = FACE_OUTER_BOUND ( 'NONE', #138, .T. ) ;
#90 = DIRECTION ( 'NONE',  ( -3.491481338843133355E-15, 1.224646799147353207E-16, -1.000000000000000000 ) ) ;
#91 = CLOSED_SHELL ( 'NONE', ( #1, #130, #30 ) ) ;
#92 = APPROVAL_PERSON_ORGANIZATION ( #95, #189, #124 ) ;
#93 = DATE_TIME_ROLE ( 'creation_date' ) ;
#94 = CALENDAR_DATE ( 2021, 8, 12 ) ;
#95 = PERSON_AND_ORGANIZATION ( #37, #49 ) ;
#96 = PERSON_AND_ORGANIZATION_ROLE ( 'design_owner' ) ;
#97 = APPROVAL ( #125, 'UNSPECIFIED' ) ;
#98 = EDGE_LOOP ( 'NONE', ( #123 ) ) ;
#99 = MANIFOLD_SOLID_BREP ( 'Corps-Déplacer/Copier1[1]', #200 ) ;
#100 = DIRECTION ( 'NONE',  ( 1.000000000000000000, 0.0000000000000000000, 0.0000000000000000000 ) ) ;
#101 = CIRCLE ( 'NONE', #12, 2.999999999999995115 ) ;
#102 = DIRECTION ( 'NONE',  ( -3.491481338843133355E-15, 1.224646799147353207E-16, -1.000000000000000000 ) ) ;
#103 = ORIENTED_EDGE ( 'NONE', *, *, #68, .T. ) ;
#104 = DIRECTION ( 'NONE',  ( 0.0000000000000000000, 1.000000000000000000, 0.0000000000000000000 ) ) ;
#105 = EDGE_CURVE ( 'NONE', #14, #14, #56, .T. ) ;
#106 = CARTESIAN_POINT ( 'NONE',  ( 4.189777606611760026E-14, -1.469576158976823947E-15, 12.00000000000000000 ) ) ;
#107 = APPROVAL_DATE_TIME ( #163, #196 ) ;
#108 = DIRECTION ( 'NONE',  ( -3.491481338843133355E-15, 1.224646799147353207E-16, -1.000000000000000000 ) ) ;
#109 = APPROVAL_PERSON_ORGANIZATION ( #150, #196, #7 ) ;
#110 = PERSON_AND_ORGANIZATION_ROLE ( 'classification_officer' ) ;
#111 = CC_DESIGN_PERSON_AND_ORGANIZATION_ASSIGNMENT ( #140, #15, ( #142 ) ) ;
#112 = LOCAL_TIME ( 10, 33, 52.00000000000000000, #18 ) ;
#113 = FACE_OUTER_BOUND ( 'NONE', #54, .T. ) ;
#114 = ORIENTED_EDGE ( 'NONE', *, *, #135, .T. ) ;
#115 = CC_DESIGN_PERSON_AND_ORGANIZATION_ASSIGNMENT ( #17, #81, ( #64 ) ) ;
#116 = CARTESIAN_POINT ( 'NONE',  ( 4.189777606611760026E-14, 2.249639673992780938E-32, 12.00000000000000000 ) ) ;
#117 = DIRECTION ( 'NONE',  ( -3.491481338843133355E-15, 1.224646799147353207E-16, -1.000000000000000000 ) ) ;
#118 = ORIENTED_EDGE ( 'NONE', *, *, #180, .F. ) ;
#119 = APPROVAL_PERSON_ORGANIZATION ( #126, #97, #53 ) ;
#120 = APPLICATION_CONTEXT ( 'configuration controlled 3d designs of mechanical parts and assemblies' ) ;
#121 = CIRCLE ( 'NONE', #35, 2.400000000000001688 ) ;
#122 = PERSON_AND_ORGANIZATION_ROLE ( 'design_supplier' ) ;
#123 = ORIENTED_EDGE ( 'NONE', *, *, #105, .T. ) ;
#124 = APPROVAL_ROLE ( '' ) ;
#125 = APPROVAL_STATUS ( 'not_yet_approved' ) ;
#126 = PERSON_AND_ORGANIZATION ( #37, #49 ) ;
#127 = PLANE ( 'NONE',  #76 ) ;
#128 = EDGE_LOOP ( 'NONE', ( #114 ) ) ;
#129 = CARTESIAN_POINT ( 'NONE',  ( 4.189777606611760026E-14, 2.249639673992780938E-32, 12.00000000000000000 ) ) ;
#130 = ADVANCED_FACE ( 'NONE', ( #149, #3 ), #44, .T. ) ;
#131 = CARTESIAN_POINT ( 'NONE',  ( 0.0000000000000000000, 0.0000000000000000000, 0.0000000000000000000 ) ) ;
#132 = AXIS2_PLACEMENT_3D ( 'NONE', #116, #5, #182 ) ;
#133 = VERTEX_POINT ( 'NONE', #51 ) ;
#134 = ADVANCED_FACE ( 'NONE', ( #61 ), #87, .F. ) ;
#135 = EDGE_CURVE ( 'NONE', #167, #167, #101, .T. ) ;
#136 = PRODUCT_DEFINITION_SHAPE ( 'NONE', 'NONE',  #142 ) ;
#137 =( LENGTH_UNIT ( ) NAMED_UNIT ( * ) SI_UNIT ( .MILLI., .METRE. ) );
#138 = EDGE_LOOP ( 'NONE', ( #36 ) ) ;
#139 = SECURITY_CLASSIFICATION ( '', '', #77 ) ;
#140 = PERSON_AND_ORGANIZATION ( #37, #49 ) ;
#141 =( NAMED_UNIT ( * ) SI_UNIT ( $, .STERADIAN. ) SOLID_ANGLE_UNIT ( ) );
#142 = PRODUCT_DEFINITION ( 'UNKNOWN', '', #64, #168 ) ;
#143 = COORDINATED_UNIVERSAL_TIME_OFFSET ( 1, 0, .AHEAD. ) ;
#144 = DIRECTION ( 'NONE',  ( -4.275831445896958607E-31, -1.000000000000000000, -1.224646799147353207E-16 ) ) ;
#145 = FACE_OUTER_BOUND ( 'NONE', #98, .T. ) ;
#146 = CC_DESIGN_APPROVAL ( #97, ( #142 ) ) ;
#147 = ORIENTED_EDGE ( 'NONE', *, *, #180, .T. ) ;
#148 = EDGE_CURVE ( 'NONE', #170, #170, #121, .T. ) ;
#149 = FACE_OUTER_BOUND ( 'NONE', #72, .T. ) ;
#150 = PERSON_AND_ORGANIZATION ( #37, #49 ) ;
#151 = CC_DESIGN_PERSON_AND_ORGANIZATION_ASSIGNMENT ( #52, #110, ( #139 ) ) ;
#152 = CARTESIAN_POINT ( 'NONE',  ( 4.189777606611760026E-14, 2.999999999999993783, 12.00000000000000000 ) ) ;
#153 = CARTESIAN_POINT ( 'NONE',  ( 2.094888803305880013E-13, 2.399999999999994138, 60.00000000000000000 ) ) ;
#154 = MECHANICAL_CONTEXT ( 'NONE', #120, 'mechanical' ) ;
#155 = DATE_AND_TIME ( #55, #112 ) ;
#156 = DATE_AND_TIME ( #173, #193 ) ;
#157 = ORIENTED_EDGE ( 'NONE', *, *, #148, .T. ) ;
#158 = APPROVAL_STATUS ( 'not_yet_approved' ) ;
#159 = DIRECTION ( 'NONE',  ( 4.275831445896958607E-31, 1.000000000000000000, 1.224646799147353454E-16 ) ) ;
#160 = CYLINDRICAL_SURFACE ( 'NONE', #172, 2.999999999999998224 ) ;
#161 = DATE_AND_TIME ( #94, #57 ) ;
#162 = FACE_OUTER_BOUND ( 'NONE', #191, .T. ) ;
#163 = DATE_AND_TIME ( #40, #4 ) ;
#164 = DIRECTION ( 'NONE',  ( -3.491481338843133355E-15, 1.224646799147353207E-16, -1.000000000000000000 ) ) ;
#165 = CARTESIAN_POINT ( 'NONE',  ( -5.344808899709476178E-31, 1.874706600394513903E-32, -1.530814110402899633E-16 ) ) ;
#166 = CC_DESIGN_APPROVAL ( #196, ( #139 ) ) ;
#167 = VERTEX_POINT ( 'NONE', #152 ) ;
#168 = DESIGN_CONTEXT ( 'detailed design', #39, 'design' ) ;
#169 = AXIS2_PLACEMENT_3D ( 'NONE', #73, #102, #104 ) ;
#170 = VERTEX_POINT ( 'NONE', #153 ) ;
#171 = PRODUCT ( '379728', '379728', '', ( #154 ) ) ;
#172 = AXIS2_PLACEMENT_3D ( 'NONE', #131, #60, #159 ) ;
#173 = CALENDAR_DATE ( 2021, 8, 12 ) ;
#174 = ADVANCED_FACE ( 'NONE', ( #89, #74 ), #16, .T. ) ;
#175 = COORDINATED_UNIVERSAL_TIME_OFFSET ( 1, 0, .AHEAD. ) ;
#176 = AXIS2_PLACEMENT_3D ( 'NONE', #165, #199, #184 ) ;
#177 = APPLICATION_PROTOCOL_DEFINITION ( 'international standard', 'config_control_design', 1994, #39 ) ;
#178 = AXIS2_PLACEMENT_3D ( 'NONE', #32, #2, #100 ) ;
#179 = FACE_OUTER_BOUND ( 'NONE', #192, .T. ) ;
#180 = EDGE_CURVE ( 'NONE', #48, #48, #185, .T. ) ;
#181 = PLANE ( 'NONE',  #176 ) ;
#182 = DIRECTION ( 'NONE',  ( -4.275831445896958607E-31, -1.000000000000000000, -1.224646799147353207E-16 ) ) ;
#183 = DIRECTION ( 'NONE',  ( 0.0000000000000000000, 1.000000000000000000, 0.0000000000000000000 ) ) ;
#184 = DIRECTION ( 'NONE',  ( -4.275831445896958607E-31, -1.000000000000000000, -1.224646799147353207E-16 ) ) ;
#185 = CIRCLE ( 'NONE', #6, 2.999999999999993783 ) ;
#186 = CARTESIAN_POINT ( 'NONE',  ( 2.137876538271896752E-31, 2.999999999999993783, 6.123121766362532060E-17 ) ) ;
#187 = CC_DESIGN_SECURITY_CLASSIFICATION ( #139, ( #64 ) ) ;
#188 = PERSON_AND_ORGANIZATION ( #37, #49 ) ;
#189 = APPROVAL ( #158, 'UNSPECIFIED' ) ;
#190 =( NAMED_UNIT ( * ) PLANE_ANGLE_UNIT ( ) SI_UNIT ( $, .RADIAN. ) );
#191 = EDGE_LOOP ( 'NONE', ( #8 ) ) ;
#192 = EDGE_LOOP ( 'NONE', ( #147 ) ) ;
#193 = LOCAL_TIME ( 10, 33, 52.00000000000000000, #80 ) ;
#194 = EDGE_LOOP ( 'NONE', ( #65 ) ) ;
#195 = CARTESIAN_POINT ( 'NONE',  ( 0.0000000000000000000, 0.0000000000000000000, 0.0000000000000000000 ) ) ;
#196 = APPROVAL ( #23, 'UNSPECIFIED' ) ;
#197 = CARTESIAN_POINT ( 'NONE',  ( 2.094888803305880013E-13, -7.347880794884118356E-15, 60.00000000000000000 ) ) ;
#198 = AXIS2_PLACEMENT_3D ( 'NONE', #22, #24, #86 ) ;
#199 = DIRECTION ( 'NONE',  ( 3.491481338843133355E-15, -1.224646799147353207E-16, 1.000000000000000000 ) ) ;
#200 = CLOSED_SHELL ( 'NONE', ( #134, #21, #174, #13 ) ) ;
#201 = LOCAL_TIME ( 10, 33, 52.00000000000000000, #19 ) ;
#202 = EDGE_LOOP ( 'NONE', ( #157 ) ) ;
#203 = APPLICATION_PROTOCOL_DEFINITION ( 'international standard', 'config_control_design', 1994, #120 ) ;
ENDSEC;
END-ISO-10303-21;
