ISO-10303-21;
HEADER;
FILE_DESCRIPTION (( 'STEP AP203' ),
    '1' );
FILE_NAME ('379727.step',
    '2021-12-08T09:33:51',
    ( '' ),
    ( '' ),
    'SwSTEP 2.0',
    'SolidWorks 2019',
    '' );
FILE_SCHEMA (( 'CONFIG_CONTROL_DESIGN' ));
ENDSEC;

DATA;
#1 = FACE_OUTER_BOUND ( 'NONE', #208, .T. ) ;
#2 = CARTESIAN_POINT ( 'NONE',  ( -6.413839710158237013E-31, 0.0000000000000000000, -1.836996703606440502E-16 ) ) ;
#3 =( LENGTH_UNIT ( ) NAMED_UNIT ( * ) SI_UNIT ( .MILLI., .METRE. ) );
#4 = CARTESIAN_POINT ( 'NONE',  ( 2.073939915272820834E-13, 2.999999999999993783, 59.39999999999999147 ) ) ;
#5 = PERSON_AND_ORGANIZATION_ROLE ( 'design_owner' ) ;
#6 = VERTEX_POINT ( 'NONE', #77 ) ;
#7 = CARTESIAN_POINT ( 'NONE',  ( 8.728703347107833388E-14, -2.500000000000001332, 25.00000000000000000 ) ) ;
#8 = AXIS2_PLACEMENT_3D ( 'NONE', #139, #54, #106 ) ;
#9 = PERSON_AND_ORGANIZATION ( #47, #214 ) ;
#10 = EDGE_CURVE ( 'NONE', #90, #90, #155, .T. ) ;
#11 = APPROVAL_DATE_TIME ( #200, #61 ) ;
#12 = COORDINATED_UNIVERSAL_TIME_OFFSET ( 1, 0, .AHEAD. ) ;
#13 = CC_DESIGN_APPROVAL ( #61, ( #46 ) ) ;
#14 = APPROVAL_ROLE ( '' ) ;
#15 = ADVANCED_FACE ( 'NONE', ( #161, #58 ), #93, .T. ) ;
#16 = DIRECTION ( 'NONE',  ( -4.275831445896958607E-31, -1.000000000000000000, -1.224646799147353207E-16 ) ) ;
#17 = EDGE_LOOP ( 'NONE', ( #38 ) ) ;
#18 = AXIS2_PLACEMENT_3D ( 'NONE', #179, #26, #92 ) ;
#19 = CARTESIAN_POINT ( 'NONE',  ( 8.728703347107833388E-14, 2.249639673992779843E-32, 25.00000000000000000 ) ) ;
#20 = EDGE_LOOP ( 'NONE', ( #125 ) ) ;
#21 = DIRECTION ( 'NONE',  ( -3.491481338843133355E-15, 1.224646799147353207E-16, -1.000000000000000000 ) ) ;
#22 = CARTESIAN_POINT ( 'NONE',  ( 2.094888803305880013E-13, -7.347880794884118356E-15, 60.00000000000000000 ) ) ;
#23 = LOCAL_TIME ( 10, 33, 51.00000000000000000, #221 ) ;
#24 = ORIENTED_EDGE ( 'NONE', *, *, #51, .F. ) ;
#25 = CARTESIAN_POINT ( 'NONE',  ( 1.023725273801284085E-30, -6.087552285867519684E-32, 2.932065717815020477E-16 ) ) ;
#26 = DIRECTION ( 'NONE',  ( 3.491481338843133355E-15, -1.276467311168695266E-16, 1.000000000000000000 ) ) ;
#27 = CARTESIAN_POINT ( 'NONE',  ( 2.094888803305880013E-13, 2.399999999999994138, 60.00000000000000000 ) ) ;
#28 = DIRECTION ( 'NONE',  ( -4.456761796588770537E-31, -1.000000000000000000, -1.276467311168695512E-16 ) ) ;
#29 = DIRECTION ( 'NONE',  ( 3.491481338843133355E-15, -1.276467311168695266E-16, 1.000000000000000000 ) ) ;
#30 = CLOSED_SHELL ( 'NONE', ( #199, #15, #102, #32, #213 ) ) ;
#31 = CALENDAR_DATE ( 2021, 8, 12 ) ;
#32 = ADVANCED_FACE ( 'NONE', ( #181, #95 ), #122, .T. ) ;
#33 = FACE_OUTER_BOUND ( 'NONE', #104, .T. ) ;
#34 = APPROVAL_DATE_TIME ( #188, #39 ) ;
#35 = UNCERTAINTY_MEASURE_WITH_UNIT (LENGTH_MEASURE( 1.000000000000000082E-05 ), #3, 'distance_accuracy_value', 'NONE');
#36 = DIRECTION ( 'NONE',  ( 3.491481338843133355E-15, -1.224646799147353207E-16, 1.000000000000000000 ) ) ;
#37 = CALENDAR_DATE ( 2021, 8, 12 ) ;
#38 = ORIENTED_EDGE ( 'NONE', *, *, #124, .F. ) ;
#39 = APPROVAL ( #153, 'UNSPECIFIED' ) ;
#40 = LOCAL_TIME ( 10, 33, 51.00000000000000000, #98 ) ;
#41 = CARTESIAN_POINT ( 'NONE',  ( 0.0000000000000000000, 0.0000000000000000000, 0.0000000000000000000 ) ) ;
#42 = ORIENTED_EDGE ( 'NONE', *, *, #91, .T. ) ;
#43 = DIRECTION ( 'NONE',  ( 4.275831445896958607E-31, 1.000000000000000000, 1.224646799147353207E-16 ) ) ;
#44 = ADVANCED_BREP_SHAPE_REPRESENTATION ( '379727', ( #205, #202, #94 ), #162 ) ;
#45 = DIRECTION ( 'NONE',  ( 4.275831445896958607E-31, 1.000000000000000000, 1.224646799147353207E-16 ) ) ;
#46 = SECURITY_CLASSIFICATION ( '', '', #151 ) ;
#47 = PERSON ( 'UNSPECIFIED', 'UNSPECIFIED', 'UNSPECIFIED', ('UNSPECIFIED'), ('UNSPECIFIED'), ('UNSPECIFIED') ) ;
#48 = DIRECTION ( 'NONE',  ( -3.491481338843133355E-15, 1.224646799147353207E-16, -1.000000000000000000 ) ) ;
#49 = LOCAL_TIME ( 10, 33, 51.00000000000000000, #120 ) ;
#50 = COORDINATED_UNIVERSAL_TIME_OFFSET ( 1, 0, .AHEAD. ) ;
#51 = EDGE_CURVE ( 'NONE', #112, #112, #65, .T. ) ;
#52 = PERSON_AND_ORGANIZATION ( #47, #214 ) ;
#53 = APPLICATION_CONTEXT ( 'configuration controlled 3d designs of mechanical parts and assemblies' ) ;
#54 = DIRECTION ( 'NONE',  ( 3.491481338843133355E-15, -1.276467311168695266E-16, 1.000000000000000000 ) ) ;
#55 = AXIS2_PLACEMENT_3D ( 'NONE', #41, #21, #45 ) ;
#56 = ORIENTED_EDGE ( 'NONE', *, *, #196, .F. ) ;
#57 = VERTEX_POINT ( 'NONE', #27 ) ;
#58 = FACE_BOUND ( 'NONE', #86, .T. ) ;
#59 =( NAMED_UNIT ( * ) SI_UNIT ( $, .STERADIAN. ) SOLID_ANGLE_UNIT ( ) );
#60 = AXIS2_PLACEMENT_3D ( 'NONE', #22, #103, #176 ) ;
#61 = APPROVAL ( #186, 'UNSPECIFIED' ) ;
#62 = FACE_OUTER_BOUND ( 'NONE', #136, .T. ) ;
#63 = CARTESIAN_POINT ( 'NONE',  ( 2.073939915272820834E-13, -7.274401986935278213E-15, 59.39999999999999147 ) ) ;
#64 = PERSON_AND_ORGANIZATION ( #47, #214 ) ;
#65 = CIRCLE ( 'NONE', #73, 3.000000000000001332 ) ;
#66 = CC_DESIGN_APPROVAL ( #39, ( #135 ) ) ;
#67 = CARTESIAN_POINT ( 'NONE',  ( -5.344808899709476178E-31, 1.874706600394513903E-32, -1.530814110402899633E-16 ) ) ;
#68 = SHAPE_DEFINITION_REPRESENTATION ( #154, #44 ) ;
#69 = AXIS2_PLACEMENT_3D ( 'NONE', #126, #191, #43 ) ;
#70 = ORIENTED_EDGE ( 'NONE', *, *, #189, .T. ) ;
#71 = CC_DESIGN_SECURITY_CLASSIFICATION ( #46, ( #135 ) ) ;
#72 = DIRECTION ( 'NONE',  ( 3.491481338843133355E-15, -1.276467311168695266E-16, 1.000000000000000000 ) ) ;
#73 = AXIS2_PLACEMENT_3D ( 'NONE', #63, #174, #117 ) ;
#74 = APPROVAL ( #215, 'UNSPECIFIED' ) ;
#75 = DIRECTION ( 'NONE',  ( 3.491481338843133355E-15, -1.224646799147353207E-16, 1.000000000000000000 ) ) ;
#76 = PLANE ( 'NONE',  #219 ) ;
#77 = CARTESIAN_POINT ( 'NONE',  ( -9.046517534590730088E-32, -2.499999999999996891, -2.591025601067140203E-17 ) ) ;
#78 = CC_DESIGN_DATE_AND_TIME_ASSIGNMENT ( #206, #171, ( #116 ) ) ;
#79 = PRODUCT ( '379727', '379727', '', ( #217 ) ) ;
#80 = PERSON_AND_ORGANIZATION_ROLE ( 'creator' ) ;
#81 = PERSON_AND_ORGANIZATION_ROLE ( 'creator' ) ;
#82 = APPLICATION_CONTEXT ( 'configuration controlled 3d designs of mechanical parts and assemblies' ) ;
#83 = DIRECTION ( 'NONE',  ( -3.491481338843133355E-15, 1.276467311168695266E-16, -1.000000000000000000 ) ) ;
#84 = PERSON_AND_ORGANIZATION ( #47, #214 ) ;
#85 = FACE_OUTER_BOUND ( 'NONE', #17, .T. ) ;
#86 = EDGE_LOOP ( 'NONE', ( #175 ) ) ;
#87 = CIRCLE ( 'NONE', #114, 2.499999999999996891 ) ;
#88 = DIRECTION ( 'NONE',  ( 3.491481338843133355E-15, -1.276467311168695266E-16, 1.000000000000000000 ) ) ;
#89 = ORIENTED_EDGE ( 'NONE', *, *, #189, .F. ) ;
#90 = VERTEX_POINT ( 'NONE', #220 ) ;
#91 = EDGE_CURVE ( 'NONE', #160, #160, #145, .T. ) ;
#92 = DIRECTION ( 'NONE',  ( 0.0000000000000000000, -1.000000000000000000, 0.0000000000000000000 ) ) ;
#93 = CONICAL_SURFACE ( 'NONE', #222, 2.400000000000001688, 0.7853981633974453924 ) ;
#94 = AXIS2_PLACEMENT_3D ( 'NONE', #146, #108, #216 ) ;
#95 = FACE_OUTER_BOUND ( 'NONE', #211, .T. ) ;
#96 = DATE_AND_TIME ( #180, #100 ) ;
#97 = APPROVAL_PERSON_ORGANIZATION ( #64, #61, #132 ) ;
#98 = COORDINATED_UNIVERSAL_TIME_OFFSET ( 1, 0, .AHEAD. ) ;
#99 = ADVANCED_FACE ( 'NONE', ( #33 ), #150, .F. ) ;
#100 = LOCAL_TIME ( 10, 33, 51.00000000000000000, #50 ) ;
#101 = DATE_TIME_ROLE ( 'classification_date' ) ;
#102 = ADVANCED_FACE ( 'NONE', ( #85 ), #137, .F. ) ;
#103 = DIRECTION ( 'NONE',  ( -3.491481338843133355E-15, 1.224646799147353207E-16, -1.000000000000000000 ) ) ;
#104 = EDGE_LOOP ( 'NONE', ( #89 ) ) ;
#105 = DIRECTION ( 'NONE',  ( 3.491481338843133355E-15, -1.224646799147353207E-16, 1.000000000000000000 ) ) ;
#106 = DIRECTION ( 'NONE',  ( 0.0000000000000000000, -1.000000000000000000, 0.0000000000000000000 ) ) ;
#107 = AXIS2_PLACEMENT_3D ( 'NONE', #2, #72, #28 ) ;
#108 = DIRECTION ( 'NONE',  ( 0.0000000000000000000, 0.0000000000000000000, 1.000000000000000000 ) ) ;
#109 = DIRECTION ( 'NONE',  ( 0.0000000000000000000, 1.000000000000000000, 0.0000000000000000000 ) ) ;
#110 = VERTEX_POINT ( 'NONE', #7 ) ;
#111 = PRODUCT_RELATED_PRODUCT_CATEGORY ( 'detail', '', ( #79 ) ) ;
#112 = VERTEX_POINT ( 'NONE', #4 ) ;
#113 = EDGE_LOOP ( 'NONE', ( #70 ) ) ;
#114 = AXIS2_PLACEMENT_3D ( 'NONE', #25, #88, #209 ) ;
#115 = DATE_AND_TIME ( #37, #23 ) ;
#116 = PRODUCT_DEFINITION ( 'UNKNOWN', '', #135, #173 ) ;
#117 = DIRECTION ( 'NONE',  ( 0.0000000000000000000, 1.000000000000000000, 0.0000000000000000000 ) ) ;
#118 = CALENDAR_DATE ( 2021, 8, 12 ) ;
#119 = AXIS2_PLACEMENT_3D ( 'NONE', #19, #105, #157 ) ;
#120 = COORDINATED_UNIVERSAL_TIME_OFFSET ( 1, 0, .AHEAD. ) ;
#121 = ORIENTED_EDGE ( 'NONE', *, *, #10, .F. ) ;
#122 = CONICAL_SURFACE ( 'NONE', #182, 7.499999999999998224, 0.2617993877991501850 ) ;
#123 = PLANE ( 'NONE',  #119 ) ;
#124 = EDGE_CURVE ( 'NONE', #57, #57, #193, .T. ) ;
#125 = ORIENTED_EDGE ( 'NONE', *, *, #91, .F. ) ;
#126 = CARTESIAN_POINT ( 'NONE',  ( 2.094888803305880013E-13, 1.799711739194219277E-32, 60.00000000000000000 ) ) ;
#127 = CC_DESIGN_PERSON_AND_ORGANIZATION_ASSIGNMENT ( #164, #5, ( #79 ) ) ;
#128 = CIRCLE ( 'NONE', #8, 2.499999999999998224 ) ;
#129 = APPLICATION_PROTOCOL_DEFINITION ( 'international standard', 'config_control_design', 1994, #82 ) ;
#130 = DIRECTION ( 'NONE',  ( 0.0000000000000000000, -1.000000000000000000, 0.0000000000000000000 ) ) ;
#131 = CALENDAR_DATE ( 2021, 8, 12 ) ;
#132 = APPROVAL_ROLE ( '' ) ;
#133 = PERSON_AND_ORGANIZATION ( #47, #214 ) ;
#134 = PERSON_AND_ORGANIZATION ( #47, #214 ) ;
#135 = PRODUCT_DEFINITION_FORMATION_WITH_SPECIFIED_SOURCE ( 'ANY', '', #79, .NOT_KNOWN. ) ;
#136 = EDGE_LOOP ( 'NONE', ( #56 ) ) ;
#137 = PLANE ( 'NONE',  #69 ) ;
#138 = CC_DESIGN_PERSON_AND_ORGANIZATION_ASSIGNMENT ( #84, #172, ( #46 ) ) ;
#139 = CARTESIAN_POINT ( 'NONE',  ( 8.728703347107833388E-14, -3.191168277921738509E-15, 25.00000000000000000 ) ) ;
#140 = ORIENTED_EDGE ( 'NONE', *, *, #10, .T. ) ;
#141 = APPROVAL_PERSON_ORGANIZATION ( #133, #39, #14 ) ;
#142 = ADVANCED_FACE ( 'NONE', ( #207 ), #123, .T. ) ;
#143 = DIRECTION ( 'NONE',  ( -4.275831445896958607E-31, -1.000000000000000000, -1.224646799147353207E-16 ) ) ;
#144 = CLOSED_SHELL ( 'NONE', ( #142, #204, #99 ) ) ;
#145 = CIRCLE ( 'NONE', #169, 2.999999999999999112 ) ;
#146 = CARTESIAN_POINT ( 'NONE',  ( 0.0000000000000000000, 0.0000000000000000000, 0.0000000000000000000 ) ) ;
#147 = CARTESIAN_POINT ( 'NONE',  ( 1.524389622222840417E-13, -5.573088707662931962E-15, 43.66025403784432513 ) ) ;
#148 = LOCAL_TIME ( 10, 33, 51.00000000000000000, #12 ) ;
#149 = PERSON_AND_ORGANIZATION_ROLE ( 'design_supplier' ) ;
#150 = PLANE ( 'NONE',  #201 ) ;
#151 = SECURITY_CLASSIFICATION_LEVEL ( 'unclassified' ) ;
#152 = CC_DESIGN_PERSON_AND_ORGANIZATION_ASSIGNMENT ( #9, #81, ( #116 ) ) ;
#153 = APPROVAL_STATUS ( 'not_yet_approved' ) ;
#154 = PRODUCT_DEFINITION_SHAPE ( 'NONE', 'NONE',  #116 ) ;
#155 = CIRCLE ( 'NONE', #18, 2.499999999999998224 ) ;
#156 = ORIENTED_EDGE ( 'NONE', *, *, #51, .T. ) ;
#157 = DIRECTION ( 'NONE',  ( -4.275831445896958607E-31, -1.000000000000000000, -1.224646799147353207E-16 ) ) ;
#158 = CYLINDRICAL_SURFACE ( 'NONE', #107, 2.499999999999997780 ) ;
#159 = EDGE_LOOP ( 'NONE', ( #140 ) ) ;
#160 = VERTEX_POINT ( 'NONE', #198 ) ;
#161 = FACE_OUTER_BOUND ( 'NONE', #178, .T. ) ;
#162 =( GEOMETRIC_REPRESENTATION_CONTEXT ( 3 ) GLOBAL_UNCERTAINTY_ASSIGNED_CONTEXT ( ( #35 ) ) GLOBAL_UNIT_ASSIGNED_CONTEXT ( ( #3, #195, #59 ) ) REPRESENTATION_CONTEXT ( 'NONE', 'WORKASPACE' ) );
#163 = CC_DESIGN_DATE_AND_TIME_ASSIGNMENT ( #115, #101, ( #46 ) ) ;
#164 = PERSON_AND_ORGANIZATION ( #47, #214 ) ;
#165 = EDGE_LOOP ( 'NONE', ( #121 ) ) ;
#166 = PERSON_AND_ORGANIZATION ( #47, #214 ) ;
#167 = APPROVAL_DATE_TIME ( #96, #74 ) ;
#168 = CC_DESIGN_PERSON_AND_ORGANIZATION_ASSIGNMENT ( #52, #149, ( #135 ) ) ;
#169 = AXIS2_PLACEMENT_3D ( 'NONE', #187, #83, #130 ) ;
#170 = CC_DESIGN_APPROVAL ( #74, ( #116 ) ) ;
#171 = DATE_TIME_ROLE ( 'creation_date' ) ;
#172 = PERSON_AND_ORGANIZATION_ROLE ( 'classification_officer' ) ;
#173 = DESIGN_CONTEXT ( 'detailed design', #82, 'design' ) ;
#174 = DIRECTION ( 'NONE',  ( -3.491481338843133355E-15, 1.224646799147353207E-16, -1.000000000000000000 ) ) ;
#175 = ORIENTED_EDGE ( 'NONE', *, *, #124, .T. ) ;
#176 = DIRECTION ( 'NONE',  ( 0.0000000000000000000, 1.000000000000000000, 0.0000000000000000000 ) ) ;
#177 = ORIENTED_EDGE ( 'NONE', *, *, #196, .T. ) ;
#178 = EDGE_LOOP ( 'NONE', ( #24 ) ) ;
#179 = CARTESIAN_POINT ( 'NONE',  ( 8.728703347107833388E-14, -3.191168277921738509E-15, 25.00000000000000000 ) ) ;
#180 = CALENDAR_DATE ( 2021, 8, 12 ) ;
#181 = FACE_BOUND ( 'NONE', #190, .T. ) ;
#182 = AXIS2_PLACEMENT_3D ( 'NONE', #147, #29, #223 ) ;
#183 = APPLICATION_PROTOCOL_DEFINITION ( 'international standard', 'config_control_design', 1994, #53 ) ;
#184 = CC_DESIGN_PERSON_AND_ORGANIZATION_ASSIGNMENT ( #134, #80, ( #135 ) ) ;
#185 = CARTESIAN_POINT ( 'NONE',  ( 8.728703347107833388E-14, 2.249639673992779843E-32, 25.00000000000000000 ) ) ;
#186 = APPROVAL_STATUS ( 'not_yet_approved' ) ;
#187 = CARTESIAN_POINT ( 'NONE',  ( 9.380222634619889583E-14, -3.429360320895857381E-15, 26.86602540378443038 ) ) ;
#188 = DATE_AND_TIME ( #118, #49 ) ;
#189 = EDGE_CURVE ( 'NONE', #6, #6, #87, .T. ) ;
#190 = EDGE_LOOP ( 'NONE', ( #177 ) ) ;
#191 = DIRECTION ( 'NONE',  ( -3.491481338843133355E-15, 1.224646799147353207E-16, -1.000000000000000000 ) ) ;
#192 = CYLINDRICAL_SURFACE ( 'NONE', #55, 2.999999999999999112 ) ;
#193 = CIRCLE ( 'NONE', #60, 2.400000000000001688 ) ;
#194 = FACE_OUTER_BOUND ( 'NONE', #113, .T. ) ;
#195 =( NAMED_UNIT ( * ) PLANE_ANGLE_UNIT ( ) SI_UNIT ( $, .RADIAN. ) );
#196 = EDGE_CURVE ( 'NONE', #110, #110, #128, .T. ) ;
#197 = CARTESIAN_POINT ( 'NONE',  ( 2.094888803305880013E-13, -7.347880794884118356E-15, 60.00000000000000000 ) ) ;
#198 = CARTESIAN_POINT ( 'NONE',  ( 9.380222634619889583E-14, -3.000000000000002665, 26.86602540378443038 ) ) ;
#199 = ADVANCED_FACE ( 'NONE', ( #1, #210 ), #192, .T. ) ;
#200 = DATE_AND_TIME ( #131, #148 ) ;
#201 = AXIS2_PLACEMENT_3D ( 'NONE', #67, #36, #16 ) ;
#202 = MANIFOLD_SOLID_BREP ( 'Corps-Déplacer/Copier1[2]', #144 ) ;
#203 = APPROVAL_PERSON_ORGANIZATION ( #166, #74, #218 ) ;
#204 = ADVANCED_FACE ( 'NONE', ( #194, #212 ), #158, .T. ) ;
#205 = MANIFOLD_SOLID_BREP ( 'Corps-Déplacer/Copier1[1]', #30 ) ;
#206 = DATE_AND_TIME ( #31, #40 ) ;
#207 = FACE_OUTER_BOUND ( 'NONE', #159, .T. ) ;
#208 = EDGE_LOOP ( 'NONE', ( #156 ) ) ;
#209 = DIRECTION ( 'NONE',  ( -4.456761796588771413E-31, -1.000000000000000000, -1.276467311168695266E-16 ) ) ;
#210 = FACE_OUTER_BOUND ( 'NONE', #20, .T. ) ;
#211 = EDGE_LOOP ( 'NONE', ( #42 ) ) ;
#212 = FACE_OUTER_BOUND ( 'NONE', #165, .T. ) ;
#213 = ADVANCED_FACE ( 'NONE', ( #62 ), #76, .F. ) ;
#214 = ORGANIZATION ( 'UNSPECIFIED', 'UNSPECIFIED', '' ) ;
#215 = APPROVAL_STATUS ( 'not_yet_approved' ) ;
#216 = DIRECTION ( 'NONE',  ( 1.000000000000000000, 0.0000000000000000000, 0.0000000000000000000 ) ) ;
#217 = MECHANICAL_CONTEXT ( 'NONE', #53, 'mechanical' ) ;
#218 = APPROVAL_ROLE ( '' ) ;
#219 = AXIS2_PLACEMENT_3D ( 'NONE', #185, #75, #143 ) ;
#220 = CARTESIAN_POINT ( 'NONE',  ( 8.728703347107833388E-14, -2.500000000000001332, 25.00000000000000000 ) ) ;
#221 = COORDINATED_UNIVERSAL_TIME_OFFSET ( 1, 0, .AHEAD. ) ;
#222 = AXIS2_PLACEMENT_3D ( 'NONE', #197, #48, #109 ) ;
#223 = DIRECTION ( 'NONE',  ( 0.0000000000000000000, -1.000000000000000000, 0.0000000000000000000 ) ) ;
ENDSEC;
END-ISO-10303-21;
