ISO-10303-21;
HEADER;
FILE_DESCRIPTION (( 'STEP AP203' ),
    '1' );
FILE_NAME ('379726.step',
    '2021-12-08T09:33:51',
    ( '' ),
    ( '' ),
    'SwSTEP 2.0',
    'SolidWorks 2019',
    '' );
FILE_SCHEMA (( 'CONFIG_CONTROL_DESIGN' ));
ENDSEC;

DATA;
#1 = MECHANICAL_CONTEXT ( 'NONE', #28, 'mechanical' ) ;
#2 = ADVANCED_FACE ( 'NONE', ( #57 ), #173, .T. ) ;
#3 = LOCAL_TIME ( 10, 33, 51.00000000000000000, #150 ) ;
#4 = DESIGN_CONTEXT ( 'detailed design', #122, 'design' ) ;
#5 = VERTEX_POINT ( 'NONE', #212 ) ;
#6 = CARTESIAN_POINT ( 'NONE',  ( 4.189777606611760026E-14, -2.500000000000000444, 12.00000000000000000 ) ) ;
#7 = CLOSED_SHELL ( 'NONE', ( #2, #179, #115 ) ) ;
#8 = FACE_OUTER_BOUND ( 'NONE', #218, .T. ) ;
#9 = CONICAL_SURFACE ( 'NONE', #214, 2.400000000000001688, 0.7853981633974453924 ) ;
#10 = CC_DESIGN_DATE_AND_TIME_ASSIGNMENT ( #172, #79, ( #118 ) ) ;
#11 = AXIS2_PLACEMENT_3D ( 'NONE', #61, #22, #96 ) ;
#12 = CC_DESIGN_APPROVAL ( #80, ( #118 ) ) ;
#13 = ORIENTED_EDGE ( 'NONE', *, *, #30, .T. ) ;
#14 = ADVANCED_FACE ( 'NONE', ( #113, #205 ), #192, .T. ) ;
#15 = CALENDAR_DATE ( 2021, 8, 12 ) ;
#16 = ORIENTED_EDGE ( 'NONE', *, *, #163, .F. ) ;
#17 = COORDINATED_UNIVERSAL_TIME_OFFSET ( 1, 0, .AHEAD. ) ;
#18 = DIRECTION ( 'NONE',  ( -4.275831445896958607E-31, -1.000000000000000000, -1.224646799147353207E-16 ) ) ;
#19 = APPLICATION_PROTOCOL_DEFINITION ( 'international standard', 'config_control_design', 1994, #122 ) ;
#20 = DIRECTION ( 'NONE',  ( -4.275831445896958607E-31, -1.000000000000000000, -1.224646799147353207E-16 ) ) ;
#21 = APPROVAL_ROLE ( '' ) ;
#22 = DIRECTION ( 'NONE',  ( 3.491481338843133355E-15, -1.276467311168695266E-16, 1.000000000000000000 ) ) ;
#23 = DIRECTION ( 'NONE',  ( 4.275831445896958607E-31, 1.000000000000000000, 1.224646799147353207E-16 ) ) ;
#24 = DIRECTION ( 'NONE',  ( 0.0000000000000000000, -1.000000000000000000, 0.0000000000000000000 ) ) ;
#25 = CIRCLE ( 'NONE', #66, 2.999999999999998224 ) ;
#26 = CARTESIAN_POINT ( 'NONE',  ( 2.094888803305880013E-13, -7.347880794884118356E-15, 60.00000000000000000 ) ) ;
#27 = ORGANIZATION ( 'UNSPECIFIED', 'UNSPECIFIED', '' ) ;
#28 = APPLICATION_CONTEXT ( 'configuration controlled 3d designs of mechanical parts and assemblies' ) ;
#29 = EDGE_LOOP ( 'NONE', ( #186 ) ) ;
#30 = EDGE_CURVE ( 'NONE', #83, #83, #180, .T. ) ;
#31 = LOCAL_TIME ( 10, 33, 51.00000000000000000, #215 ) ;
#32 = MANIFOLD_SOLID_BREP ( 'Corps-Déplacer/Copier1[1]', #49 ) ;
#33 = APPROVAL_STATUS ( 'not_yet_approved' ) ;
#34 = AXIS2_PLACEMENT_3D ( 'NONE', #129, #46, #209 ) ;
#35 = FACE_OUTER_BOUND ( 'NONE', #213, .T. ) ;
#36 = FACE_OUTER_BOUND ( 'NONE', #193, .T. ) ;
#37 = DIRECTION ( 'NONE',  ( -3.491481338843133355E-15, 1.224646799147353207E-16, -1.000000000000000000 ) ) ;
#38 = AXIS2_PLACEMENT_3D ( 'NONE', #26, #100, #39 ) ;
#39 = DIRECTION ( 'NONE',  ( 0.0000000000000000000, 1.000000000000000000, 0.0000000000000000000 ) ) ;
#40 = APPROVAL ( #202, 'UNSPECIFIED' ) ;
#41 = CARTESIAN_POINT ( 'NONE',  ( 4.189777606611760026E-14, -1.531760773402434319E-15, 12.00000000000000000 ) ) ;
#42 = CARTESIAN_POINT ( 'NONE',  ( -6.413839710158237013E-31, 0.0000000000000000000, -1.836996703606440502E-16 ) ) ;
#43 = PRODUCT_DEFINITION_FORMATION_WITH_SPECIFIED_SOURCE ( 'ANY', '', #67, .NOT_KNOWN. ) ;
#44 = CC_DESIGN_APPROVAL ( #187, ( #211 ) ) ;
#45 = COORDINATED_UNIVERSAL_TIME_OFFSET ( 1, 0, .AHEAD. ) ;
#46 = DIRECTION ( 'NONE',  ( 3.491481338843133355E-15, -1.224646799147353207E-16, 1.000000000000000000 ) ) ;
#47 = PERSON_AND_ORGANIZATION ( #120, #27 ) ;
#48 = DIRECTION ( 'NONE',  ( -3.491481338843133355E-15, 1.224646799147353207E-16, -1.000000000000000000 ) ) ;
#49 = CLOSED_SHELL ( 'NONE', ( #140, #133, #157, #14, #86 ) ) ;
#50 = EDGE_LOOP ( 'NONE', ( #91 ) ) ;
#51 = VERTEX_POINT ( 'NONE', #156 ) ;
#52 = CARTESIAN_POINT ( 'NONE',  ( 2.094888803305880013E-13, 1.799711739194219277E-32, 60.00000000000000000 ) ) ;
#53 = CIRCLE ( 'NONE', #177, 2.499999999999996891 ) ;
#54 = PERSON_AND_ORGANIZATION ( #120, #27 ) ;
#55 = EDGE_LOOP ( 'NONE', ( #13 ) ) ;
#56 = PERSON_AND_ORGANIZATION_ROLE ( 'classification_officer' ) ;
#57 = FACE_OUTER_BOUND ( 'NONE', #210, .T. ) ;
#58 = LOCAL_TIME ( 10, 33, 51.00000000000000000, #45 ) ;
#59 = PERSON_AND_ORGANIZATION ( #120, #27 ) ;
#60 = FACE_BOUND ( 'NONE', #29, .T. ) ;
#61 = CARTESIAN_POINT ( 'NONE',  ( 4.189777606611760026E-14, -1.531760773402434319E-15, 12.00000000000000000 ) ) ;
#62 = ORIENTED_EDGE ( 'NONE', *, *, #197, .F. ) ;
#63 = CARTESIAN_POINT ( 'NONE',  ( 0.0000000000000000000, 0.0000000000000000000, 0.0000000000000000000 ) ) ;
#64 = CALENDAR_DATE ( 2021, 8, 12 ) ;
#65 = AXIS2_PLACEMENT_3D ( 'NONE', #42, #88, #198 ) ;
#66 = AXIS2_PLACEMENT_3D ( 'NONE', #101, #176, #24 ) ;
#67 = PRODUCT ( '379726', '379726', '', ( #1 ) ) ;
#68 = DIRECTION ( 'NONE',  ( 0.0000000000000000000, -1.000000000000000000, 0.0000000000000000000 ) ) ;
#69 = EDGE_CURVE ( 'NONE', #99, #99, #220, .T. ) ;
#70 = AXIS2_PLACEMENT_3D ( 'NONE', #110, #191, #90 ) ;
#71 = APPROVAL_PERSON_ORGANIZATION ( #47, #187, #165 ) ;
#72 = PERSON_AND_ORGANIZATION ( #120, #27 ) ;
#73 = EDGE_LOOP ( 'NONE', ( #216 ) ) ;
#74 = ORIENTED_EDGE ( 'NONE', *, *, #163, .T. ) ;
#75 = SECURITY_CLASSIFICATION_LEVEL ( 'unclassified' ) ;
#76 = ORIENTED_EDGE ( 'NONE', *, *, #30, .F. ) ;
#77 = DATE_AND_TIME ( #106, #58 ) ;
#78 = EDGE_LOOP ( 'NONE', ( #131 ) ) ;
#79 = DATE_TIME_ROLE ( 'classification_date' ) ;
#80 = APPROVAL ( #128, 'UNSPECIFIED' ) ;
#81 = DIRECTION ( 'NONE',  ( -4.456761796588771413E-31, -1.000000000000000000, -1.276467311168695266E-16 ) ) ;
#82 = APPROVAL_DATE_TIME ( #194, #80 ) ;
#83 = VERTEX_POINT ( 'NONE', #175 ) ;
#84 = VERTEX_POINT ( 'NONE', #160 ) ;
#85 = UNCERTAINTY_MEASURE_WITH_UNIT (LENGTH_MEASURE( 1.000000000000000082E-05 ), #124, 'distance_accuracy_value', 'NONE');
#86 = ADVANCED_FACE ( 'NONE', ( #36 ), #134, .F. ) ;
#87 = DIRECTION ( 'NONE',  ( 3.491481338843133355E-15, -1.276467311168695266E-16, 1.000000000000000000 ) ) ;
#88 = DIRECTION ( 'NONE',  ( 3.491481338843133355E-15, -1.276467311168695266E-16, 1.000000000000000000 ) ) ;
#89 = CC_DESIGN_PERSON_AND_ORGANIZATION_ASSIGNMENT ( #59, #130, ( #211 ) ) ;
#90 = DIRECTION ( 'NONE',  ( 0.0000000000000000000, -1.000000000000000000, 0.0000000000000000000 ) ) ;
#91 = ORIENTED_EDGE ( 'NONE', *, *, #98, .F. ) ;
#92 = APPROVAL_ROLE ( '' ) ;
#93 = CARTESIAN_POINT ( 'NONE',  ( 4.189777606611760026E-14, 2.249639673992780938E-32, 12.00000000000000000 ) ) ;
#94 = FACE_OUTER_BOUND ( 'NONE', #167, .T. ) ;
#95 = APPLICATION_PROTOCOL_DEFINITION ( 'international standard', 'config_control_design', 1994, #28 ) ;
#96 = DIRECTION ( 'NONE',  ( 0.0000000000000000000, -1.000000000000000000, 0.0000000000000000000 ) ) ;
#97 = MANIFOLD_SOLID_BREP ( 'Corps-Déplacer/Copier1[2]', #7 ) ;
#98 = EDGE_CURVE ( 'NONE', #84, #84, #53, .T. ) ;
#99 = VERTEX_POINT ( 'NONE', #161 ) ;
#100 = DIRECTION ( 'NONE',  ( -3.491481338843133355E-15, 1.224646799147353207E-16, -1.000000000000000000 ) ) ;
#101 = CARTESIAN_POINT ( 'NONE',  ( 4.841296894123815590E-14, -1.769952816376553191E-15, 13.86602540378443038 ) ) ;
#102 = AXIS2_PLACEMENT_3D ( 'NONE', #107, #183, #20 ) ;
#103 = PRODUCT_RELATED_PRODUCT_CATEGORY ( 'detail', '', ( #67 ) ) ;
#104 =( NAMED_UNIT ( * ) PLANE_ANGLE_UNIT ( ) SI_UNIT ( $, .RADIAN. ) );
#105 = ADVANCED_BREP_SHAPE_REPRESENTATION ( '379726', ( #32, #97, #204 ), #114 ) ;
#106 = CALENDAR_DATE ( 2021, 8, 12 ) ;
#107 = CARTESIAN_POINT ( 'NONE',  ( -5.344808899709476178E-31, 1.874706600394513903E-32, -1.530814110402899633E-16 ) ) ;
#108 = AXIS2_PLACEMENT_3D ( 'NONE', #63, #119, #195 ) ;
#109 = PERSON_AND_ORGANIZATION ( #120, #27 ) ;
#110 = CARTESIAN_POINT ( 'NONE',  ( 1.070497048173232955E-13, -3.913681203143627969E-15, 30.66025403784432513 ) ) ;
#111 = DIRECTION ( 'NONE',  ( 0.0000000000000000000, 1.000000000000000000, 0.0000000000000000000 ) ) ;
#112 = APPROVAL_DATE_TIME ( #168, #40 ) ;
#113 = FACE_BOUND ( 'NONE', #73, .T. ) ;
#114 =( GEOMETRIC_REPRESENTATION_CONTEXT ( 3 ) GLOBAL_UNCERTAINTY_ASSIGNED_CONTEXT ( ( #85 ) ) GLOBAL_UNIT_ASSIGNED_CONTEXT ( ( #124, #104, #164 ) ) REPRESENTATION_CONTEXT ( 'NONE', 'WORKASPACE' ) );
#115 = ADVANCED_FACE ( 'NONE', ( #154 ), #221, .F. ) ;
#116 = ORIENTED_EDGE ( 'NONE', *, *, #69, .F. ) ;
#117 = FACE_OUTER_BOUND ( 'NONE', #78, .T. ) ;
#118 = SECURITY_CLASSIFICATION ( '', '', #75 ) ;
#119 = DIRECTION ( 'NONE',  ( -3.491481338843133355E-15, 1.224646799147353207E-16, -1.000000000000000000 ) ) ;
#120 = PERSON ( 'UNSPECIFIED', 'UNSPECIFIED', 'UNSPECIFIED', ('UNSPECIFIED'), ('UNSPECIFIED'), ('UNSPECIFIED') ) ;
#121 = CYLINDRICAL_SURFACE ( 'NONE', #65, 2.499999999999997780 ) ;
#122 = APPLICATION_CONTEXT ( 'configuration controlled 3d designs of mechanical parts and assemblies' ) ;
#123 = CC_DESIGN_PERSON_AND_ORGANIZATION_ASSIGNMENT ( #144, #190, ( #43 ) ) ;
#124 =( LENGTH_UNIT ( ) NAMED_UNIT ( * ) SI_UNIT ( .MILLI., .METRE. ) );
#125 = LOCAL_TIME ( 10, 33, 51.00000000000000000, #17 ) ;
#126 = DATE_AND_TIME ( #222, #3 ) ;
#127 = ORIENTED_EDGE ( 'NONE', *, *, #199, .T. ) ;
#128 = APPROVAL_STATUS ( 'not_yet_approved' ) ;
#129 = CARTESIAN_POINT ( 'NONE',  ( 4.189777606611760026E-14, 2.249639673992780938E-32, 12.00000000000000000 ) ) ;
#130 = PERSON_AND_ORGANIZATION_ROLE ( 'creator' ) ;
#131 = ORIENTED_EDGE ( 'NONE', *, *, #98, .T. ) ;
#132 = EDGE_LOOP ( 'NONE', ( #74 ) ) ;
#133 = ADVANCED_FACE ( 'NONE', ( #35, #60 ), #9, .T. ) ;
#134 = PLANE ( 'NONE',  #158 ) ;
#135 = AXIS2_PLACEMENT_3D ( 'NONE', #223, #37, #145 ) ;
#136 = CC_DESIGN_PERSON_AND_ORGANIZATION_ASSIGNMENT ( #166, #56, ( #118 ) ) ;
#137 = DIRECTION ( 'NONE',  ( -3.491481338843133355E-15, 1.224646799147353207E-16, -1.000000000000000000 ) ) ;
#138 = AXIS2_PLACEMENT_3D ( 'NONE', #52, #137, #23 ) ;
#139 = VERTEX_POINT ( 'NONE', #6 ) ;
#140 = ADVANCED_FACE ( 'NONE', ( #189, #94 ), #170, .T. ) ;
#141 = CIRCLE ( 'NONE', #162, 2.499999999999998668 ) ;
#142 = CC_DESIGN_DATE_AND_TIME_ASSIGNMENT ( #126, #208, ( #211 ) ) ;
#143 = CC_DESIGN_PERSON_AND_ORGANIZATION_ASSIGNMENT ( #109, #201, ( #67 ) ) ;
#144 = PERSON_AND_ORGANIZATION ( #120, #27 ) ;
#145 = DIRECTION ( 'NONE',  ( 0.0000000000000000000, 1.000000000000000000, 0.0000000000000000000 ) ) ;
#146 = EDGE_LOOP ( 'NONE', ( #151 ) ) ;
#147 = COORDINATED_UNIVERSAL_TIME_OFFSET ( 1, 0, .AHEAD. ) ;
#148 = CARTESIAN_POINT ( 'NONE',  ( 1.023725273801284085E-30, -6.087552285867519684E-32, 2.932065717815020477E-16 ) ) ;
#149 = APPROVAL_PERSON_ORGANIZATION ( #152, #80, #92 ) ;
#150 = COORDINATED_UNIVERSAL_TIME_OFFSET ( 1, 0, .AHEAD. ) ;
#151 = ORIENTED_EDGE ( 'NONE', *, *, #199, .F. ) ;
#152 = PERSON_AND_ORGANIZATION ( #120, #27 ) ;
#153 = PRODUCT_DEFINITION_SHAPE ( 'NONE', 'NONE',  #211 ) ;
#154 = FACE_OUTER_BOUND ( 'NONE', #50, .T. ) ;
#155 = SHAPE_DEFINITION_REPRESENTATION ( #153, #105 ) ;
#156 = CARTESIAN_POINT ( 'NONE',  ( 2.094888803305880013E-13, 2.399999999999994138, 60.00000000000000000 ) ) ;
#157 = ADVANCED_FACE ( 'NONE', ( #8 ), #174, .F. ) ;
#158 = AXIS2_PLACEMENT_3D ( 'NONE', #93, #169, #18 ) ;
#159 = CC_DESIGN_APPROVAL ( #40, ( #43 ) ) ;
#160 = CARTESIAN_POINT ( 'NONE',  ( -9.046517534590730088E-32, -2.499999999999996891, -2.591025601067140203E-17 ) ) ;
#161 = CARTESIAN_POINT ( 'NONE',  ( 4.189777606611760026E-14, -2.500000000000000444, 12.00000000000000000 ) ) ;
#162 = AXIS2_PLACEMENT_3D ( 'NONE', #41, #87, #68 ) ;
#163 = EDGE_CURVE ( 'NONE', #5, #5, #25, .T. ) ;
#164 =( NAMED_UNIT ( * ) SI_UNIT ( $, .STERADIAN. ) SOLID_ANGLE_UNIT ( ) );
#165 = APPROVAL_ROLE ( '' ) ;
#166 = PERSON_AND_ORGANIZATION ( #120, #27 ) ;
#167 = EDGE_LOOP ( 'NONE', ( #16 ) ) ;
#168 = DATE_AND_TIME ( #182, #125 ) ;
#169 = DIRECTION ( 'NONE',  ( 3.491481338843133355E-15, -1.224646799147353207E-16, 1.000000000000000000 ) ) ;
#170 = CYLINDRICAL_SURFACE ( 'NONE', #108, 2.999999999999998224 ) ;
#171 = APPROVAL_PERSON_ORGANIZATION ( #72, #40, #21 ) ;
#172 = DATE_AND_TIME ( #15, #31 ) ;
#173 = PLANE ( 'NONE',  #34 ) ;
#174 = PLANE ( 'NONE',  #138 ) ;
#175 = CARTESIAN_POINT ( 'NONE',  ( 2.073939915272820834E-13, 2.999999999999993783, 59.39999999999999147 ) ) ;
#176 = DIRECTION ( 'NONE',  ( -3.491481338843133355E-15, 1.276467311168695266E-16, -1.000000000000000000 ) ) ;
#177 = AXIS2_PLACEMENT_3D ( 'NONE', #148, #203, #81 ) ;
#178 = CC_DESIGN_SECURITY_CLASSIFICATION ( #118, ( #43 ) ) ;
#179 = ADVANCED_FACE ( 'NONE', ( #117, #196 ), #121, .T. ) ;
#180 = CIRCLE ( 'NONE', #135, 3.000000000000001332 ) ;
#181 = DIRECTION ( 'NONE',  ( 0.0000000000000000000, 0.0000000000000000000, 1.000000000000000000 ) ) ;
#182 = CALENDAR_DATE ( 2021, 8, 12 ) ;
#183 = DIRECTION ( 'NONE',  ( 3.491481338843133355E-15, -1.224646799147353207E-16, 1.000000000000000000 ) ) ;
#184 = LOCAL_TIME ( 10, 33, 51.00000000000000000, #147 ) ;
#185 = PERSON_AND_ORGANIZATION_ROLE ( 'design_supplier' ) ;
#186 = ORIENTED_EDGE ( 'NONE', *, *, #197, .T. ) ;
#187 = APPROVAL ( #33, 'UNSPECIFIED' ) ;
#188 = DIRECTION ( 'NONE',  ( 1.000000000000000000, 0.0000000000000000000, 0.0000000000000000000 ) ) ;
#189 = FACE_OUTER_BOUND ( 'NONE', #55, .T. ) ;
#190 = PERSON_AND_ORGANIZATION_ROLE ( 'creator' ) ;
#191 = DIRECTION ( 'NONE',  ( 3.491481338843133355E-15, -1.276467311168695266E-16, 1.000000000000000000 ) ) ;
#192 = CONICAL_SURFACE ( 'NONE', #70, 7.499999999999999112, 0.2617993877991502405 ) ;
#193 = EDGE_LOOP ( 'NONE', ( #116 ) ) ;
#194 = DATE_AND_TIME ( #64, #184 ) ;
#195 = DIRECTION ( 'NONE',  ( 4.275831445896958607E-31, 1.000000000000000000, 1.224646799147353454E-16 ) ) ;
#196 = FACE_OUTER_BOUND ( 'NONE', #146, .T. ) ;
#197 = EDGE_CURVE ( 'NONE', #51, #51, #200, .T. ) ;
#198 = DIRECTION ( 'NONE',  ( -4.456761796588770537E-31, -1.000000000000000000, -1.276467311168695512E-16 ) ) ;
#199 = EDGE_CURVE ( 'NONE', #139, #139, #141, .T. ) ;
#200 = CIRCLE ( 'NONE', #38, 2.400000000000001688 ) ;
#201 = PERSON_AND_ORGANIZATION_ROLE ( 'design_owner' ) ;
#202 = APPROVAL_STATUS ( 'not_yet_approved' ) ;
#203 = DIRECTION ( 'NONE',  ( 3.491481338843133355E-15, -1.276467311168695266E-16, 1.000000000000000000 ) ) ;
#204 = AXIS2_PLACEMENT_3D ( 'NONE', #206, #181, #188 ) ;
#205 = FACE_OUTER_BOUND ( 'NONE', #132, .T. ) ;
#206 = CARTESIAN_POINT ( 'NONE',  ( 0.0000000000000000000, 0.0000000000000000000, 0.0000000000000000000 ) ) ;
#207 = CARTESIAN_POINT ( 'NONE',  ( 2.094888803305880013E-13, -7.347880794884118356E-15, 60.00000000000000000 ) ) ;
#208 = DATE_TIME_ROLE ( 'creation_date' ) ;
#209 = DIRECTION ( 'NONE',  ( -4.275831445896958607E-31, -1.000000000000000000, -1.224646799147353207E-16 ) ) ;
#210 = EDGE_LOOP ( 'NONE', ( #127 ) ) ;
#211 = PRODUCT_DEFINITION ( 'UNKNOWN', '', #43, #4 ) ;
#212 = CARTESIAN_POINT ( 'NONE',  ( 4.841296894123815590E-14, -3.000000000000000000, 13.86602540378443038 ) ) ;
#213 = EDGE_LOOP ( 'NONE', ( #76 ) ) ;
#214 = AXIS2_PLACEMENT_3D ( 'NONE', #207, #48, #111 ) ;
#215 = COORDINATED_UNIVERSAL_TIME_OFFSET ( 1, 0, .AHEAD. ) ;
#216 = ORIENTED_EDGE ( 'NONE', *, *, #69, .T. ) ;
#217 = CC_DESIGN_PERSON_AND_ORGANIZATION_ASSIGNMENT ( #54, #185, ( #43 ) ) ;
#218 = EDGE_LOOP ( 'NONE', ( #62 ) ) ;
#219 = APPROVAL_DATE_TIME ( #77, #187 ) ;
#220 = CIRCLE ( 'NONE', #11, 2.499999999999998668 ) ;
#221 = PLANE ( 'NONE',  #102 ) ;
#222 = CALENDAR_DATE ( 2021, 8, 12 ) ;
#223 = CARTESIAN_POINT ( 'NONE',  ( 2.073939915272820834E-13, -7.274401986935278213E-15, 59.39999999999999147 ) ) ;
ENDSEC;
END-ISO-10303-21;
