ISO-10303-21;
HEADER;
FILE_DESCRIPTION (( 'STEP AP203' ),
    '1' );
FILE_NAME ('379724.step',
    '2021-12-08T09:33:50',
    ( '' ),
    ( '' ),
    'SwSTEP 2.0',
    'SolidWorks 2019',
    '' );
FILE_SCHEMA (( 'CONFIG_CONTROL_DESIGN' ));
ENDSEC;

DATA;
#1 = PRODUCT_DEFINITION ( 'UNKNOWN', '', #153, #94 ) ;
#2 = APPROVAL_DATE_TIME ( #91, #173 ) ;
#3 = AXIS2_PLACEMENT_3D ( 'NONE', #174, #46, #201 ) ;
#4 = DATE_TIME_ROLE ( 'classification_date' ) ;
#5 = APPROVAL_ROLE ( '' ) ;
#6 = CIRCLE ( 'NONE', #57, 2.499999999999998668 ) ;
#7 =( GEOMETRIC_REPRESENTATION_CONTEXT ( 3 ) GLOBAL_UNCERTAINTY_ASSIGNED_CONTEXT ( ( #131 ) ) GLOBAL_UNIT_ASSIGNED_CONTEXT ( ( #161, #38, #64 ) ) REPRESENTATION_CONTEXT ( 'NONE', 'WORKASPACE' ) );
#8 = DIRECTION ( 'NONE',  ( 0.0000000000000000000, 1.000000000000000000, 0.0000000000000000000 ) ) ;
#9 = CARTESIAN_POINT ( 'NONE',  ( 1.745740669421566678E-13, -6.123233995736766085E-15, 50.00000000000000000 ) ) ;
#10 = DIRECTION ( 'NONE',  ( 4.275831445896959482E-31, 1.000000000000000000, 1.224646799147353207E-16 ) ) ;
#11 = PLANE ( 'NONE',  #149 ) ;
#12 = CARTESIAN_POINT ( 'NONE',  ( -1.282745515301426305E-30, 4.499265603851169331E-32, -3.673929174504626980E-16 ) ) ;
#13 = ADVANCED_FACE ( 'NONE', ( #53 ), #115, .F. ) ;
#14 = FACE_OUTER_BOUND ( 'NONE', #27, .T. ) ;
#15 = LOCAL_TIME ( 10, 33, 50.00000000000000000, #177 ) ;
#16 = APPROVAL ( #19, 'UNSPECIFIED' ) ;
#17 = DIRECTION ( 'NONE',  ( -4.275831445896958607E-31, -1.000000000000000000, -1.224646799147353207E-16 ) ) ;
#18 = FACE_OUTER_BOUND ( 'NONE', #71, .T. ) ;
#19 = APPROVAL_STATUS ( 'not_yet_approved' ) ;
#20 = PERSON_AND_ORGANIZATION ( #97, #146 ) ;
#21 = AXIS2_PLACEMENT_3D ( 'NONE', #180, #186, #99 ) ;
#22 = PERSON_AND_ORGANIZATION_ROLE ( 'design_supplier' ) ;
#23 = DATE_AND_TIME ( #190, #105 ) ;
#24 = ORIENTED_EDGE ( 'NONE', *, *, #33, .T. ) ;
#25 = AXIS2_PLACEMENT_3D ( 'NONE', #168, #101, #55 ) ;
#26 = DIRECTION ( 'NONE',  ( -3.491481338843133355E-15, 1.224646799147353207E-16, -1.000000000000000000 ) ) ;
#27 = EDGE_LOOP ( 'NONE', ( #40 ) ) ;
#28 = DIRECTION ( 'NONE',  ( 1.000000000000000000, 0.0000000000000000000, 0.0000000000000000000 ) ) ;
#29 = ORIENTED_EDGE ( 'NONE', *, *, #61, .F. ) ;
#30 = VERTEX_POINT ( 'NONE', #175 ) ;
#31 = APPROVAL ( #63, 'UNSPECIFIED' ) ;
#32 = CARTESIAN_POINT ( 'NONE',  ( 1.728283262727351074E-13, -6.062001655779398511E-15, 49.50000000000000000 ) ) ;
#33 = EDGE_CURVE ( 'NONE', #138, #138, #120, .T. ) ;
#34 = DATE_AND_TIME ( #128, #81 ) ;
#35 = EDGE_CURVE ( 'NONE', #75, #75, #166, .T. ) ;
#36 = CC_DESIGN_APPROVAL ( #173, ( #1 ) ) ;
#37 = APPROVAL_ROLE ( '' ) ;
#38 =( NAMED_UNIT ( * ) PLANE_ANGLE_UNIT ( ) SI_UNIT ( $, .RADIAN. ) );
#39 = CC_DESIGN_SECURITY_CLASSIFICATION ( #66, ( #153 ) ) ;
#40 = ORIENTED_EDGE ( 'NONE', *, *, #33, .F. ) ;
#41 = ADVANCED_FACE ( 'NONE', ( #156 ), #154, .F. ) ;
#42 = ORIENTED_EDGE ( 'NONE', *, *, #35, .T. ) ;
#43 = CARTESIAN_POINT ( 'NONE',  ( 5.586370142149013368E-14, 2.499999999999992895, 16.00000000000000000 ) ) ;
#44 = CC_DESIGN_PERSON_AND_ORGANIZATION_ASSIGNMENT ( #20, #79, ( #66 ) ) ;
#45 = CARTESIAN_POINT ( 'NONE',  ( -2.137876538271896752E-31, 2.499999999999992895, -6.123121766362532060E-17 ) ) ;
#46 = DIRECTION ( 'NONE',  ( 3.491481338843133355E-15, -1.224646799147353207E-16, 1.000000000000000000 ) ) ;
#47 = SHAPE_DEFINITION_REPRESENTATION ( #116, #148 ) ;
#48 = MANIFOLD_SOLID_BREP ( 'Corps-Déplacer/Copier1[2]', #122 ) ;
#49 = PERSON_AND_ORGANIZATION_ROLE ( 'design_owner' ) ;
#50 = COORDINATED_UNIVERSAL_TIME_OFFSET ( 1, 0, .AHEAD. ) ;
#51 = APPROVAL_ROLE ( '' ) ;
#52 = CYLINDRICAL_SURFACE ( 'NONE', #158, 2.499999999999996891 ) ;
#53 = FACE_OUTER_BOUND ( 'NONE', #136, .T. ) ;
#54 = CC_DESIGN_PERSON_AND_ORGANIZATION_ASSIGNMENT ( #160, #203, ( #1 ) ) ;
#55 = DIRECTION ( 'NONE',  ( 0.0000000000000000000, 1.000000000000000000, 0.0000000000000000000 ) ) ;
#56 = EDGE_LOOP ( 'NONE', ( #85 ) ) ;
#57 = AXIS2_PLACEMENT_3D ( 'NONE', #32, #188, #88 ) ;
#58 = CARTESIAN_POINT ( 'NONE',  ( 1.745740669421566678E-13, 1.999999999999992673, 50.00000000000000000 ) ) ;
#59 = CLOSED_SHELL ( 'NONE', ( #41, #80, #65, #83 ) ) ;
#60 = DIRECTION ( 'NONE',  ( 4.275831445896958607E-31, 1.000000000000000000, 1.224646799147353207E-16 ) ) ;
#61 = EDGE_CURVE ( 'NONE', #103, #103, #133, .T. ) ;
#62 = PERSON_AND_ORGANIZATION ( #97, #146 ) ;
#63 = APPROVAL_STATUS ( 'not_yet_approved' ) ;
#64 =( NAMED_UNIT ( * ) SI_UNIT ( $, .STERADIAN. ) SOLID_ANGLE_UNIT ( ) );
#65 = ADVANCED_FACE ( 'NONE', ( #98, #165 ), #143, .T. ) ;
#66 = SECURITY_CLASSIFICATION ( '', '', #176 ) ;
#67 = ORIENTED_EDGE ( 'NONE', *, *, #35, .F. ) ;
#68 = FACE_OUTER_BOUND ( 'NONE', #118, .T. ) ;
#69 = CC_DESIGN_PERSON_AND_ORGANIZATION_ASSIGNMENT ( #144, #93, ( #153 ) ) ;
#70 = APPLICATION_CONTEXT ( 'configuration controlled 3d designs of mechanical parts and assemblies' ) ;
#71 = EDGE_LOOP ( 'NONE', ( #29 ) ) ;
#72 = VERTEX_POINT ( 'NONE', #58 ) ;
#73 = AXIS2_PLACEMENT_3D ( 'NONE', #140, #142, #123 ) ;
#74 = FACE_OUTER_BOUND ( 'NONE', #135, .T. ) ;
#75 = VERTEX_POINT ( 'NONE', #43 ) ;
#76 = CYLINDRICAL_SURFACE ( 'NONE', #73, 2.499999999999993339 ) ;
#77 = APPROVAL_DATE_TIME ( #163, #16 ) ;
#78 = CALENDAR_DATE ( 2021, 8, 12 ) ;
#79 = PERSON_AND_ORGANIZATION_ROLE ( 'classification_officer' ) ;
#80 = ADVANCED_FACE ( 'NONE', ( #68, #117 ), #52, .T. ) ;
#81 = LOCAL_TIME ( 10, 33, 50.00000000000000000, #95 ) ;
#82 = DIRECTION ( 'NONE',  ( -3.491481338843133355E-15, 1.224646799147353207E-16, -1.000000000000000000 ) ) ;
#83 = ADVANCED_FACE ( 'NONE', ( #152 ), #11, .F. ) ;
#84 = ORIENTED_EDGE ( 'NONE', *, *, #130, .F. ) ;
#85 = ORIENTED_EDGE ( 'NONE', *, *, #150, .T. ) ;
#86 = MECHANICAL_CONTEXT ( 'NONE', #70, 'mechanical' ) ;
#87 = ADVANCED_FACE ( 'NONE', ( #18, #74 ), #76, .T. ) ;
#88 = DIRECTION ( 'NONE',  ( 0.0000000000000000000, 1.000000000000000000, 0.0000000000000000000 ) ) ;
#89 = LOCAL_TIME ( 10, 33, 50.00000000000000000, #50 ) ;
#90 = PERSON_AND_ORGANIZATION ( #97, #146 ) ;
#91 = DATE_AND_TIME ( #107, #89 ) ;
#92 = PRODUCT_RELATED_PRODUCT_CATEGORY ( 'detail', '', ( #151 ) ) ;
#93 = PERSON_AND_ORGANIZATION_ROLE ( 'creator' ) ;
#94 = DESIGN_CONTEXT ( 'detailed design', #106, 'design' ) ;
#95 = COORDINATED_UNIVERSAL_TIME_OFFSET ( 1, 0, .AHEAD. ) ;
#96 = DIRECTION ( 'NONE',  ( -3.491481338843133355E-15, 1.224646799147353207E-16, -1.000000000000000000 ) ) ;
#97 = PERSON ( 'UNSPECIFIED', 'UNSPECIFIED', 'UNSPECIFIED', ('UNSPECIFIED'), ('UNSPECIFIED'), ('UNSPECIFIED') ) ;
#98 = FACE_OUTER_BOUND ( 'NONE', #102, .T. ) ;
#99 = DIRECTION ( 'NONE',  ( -4.275831445896958607E-31, -1.000000000000000000, -1.224646799147353207E-16 ) ) ;
#100 = CARTESIAN_POINT ( 'NONE',  ( 0.0000000000000000000, 0.0000000000000000000, 0.0000000000000000000 ) ) ;
#101 = DIRECTION ( 'NONE',  ( -3.491481338843133355E-15, 1.224646799147353207E-16, -1.000000000000000000 ) ) ;
#102 = EDGE_LOOP ( 'NONE', ( #182 ) ) ;
#103 = VERTEX_POINT ( 'NONE', #45 ) ;
#104 = DIRECTION ( 'NONE',  ( 0.0000000000000000000, 0.0000000000000000000, 1.000000000000000000 ) ) ;
#105 = LOCAL_TIME ( 10, 33, 50.00000000000000000, #189 ) ;
#106 = APPLICATION_CONTEXT ( 'configuration controlled 3d designs of mechanical parts and assemblies' ) ;
#107 = CALENDAR_DATE ( 2021, 8, 12 ) ;
#108 = AXIS2_PLACEMENT_3D ( 'NONE', #200, #157, #17 ) ;
#109 = DATE_TIME_ROLE ( 'creation_date' ) ;
#110 = APPLICATION_PROTOCOL_DEFINITION ( 'international standard', 'config_control_design', 1994, #70 ) ;
#111 = APPROVAL_PERSON_ORGANIZATION ( #62, #16, #5 ) ;
#112 = DIRECTION ( 'NONE',  ( 0.0000000000000000000, 1.000000000000000000, 0.0000000000000000000 ) ) ;
#113 = EDGE_LOOP ( 'NONE', ( #84 ) ) ;
#114 = AXIS2_PLACEMENT_3D ( 'NONE', #171, #187, #121 ) ;
#115 = PLANE ( 'NONE',  #3 ) ;
#116 = PRODUCT_DEFINITION_SHAPE ( 'NONE', 'NONE',  #1 ) ;
#117 = FACE_OUTER_BOUND ( 'NONE', #56, .T. ) ;
#118 = EDGE_LOOP ( 'NONE', ( #67 ) ) ;
#119 = PLANE ( 'NONE',  #108 ) ;
#120 = CIRCLE ( 'NONE', #126, 2.499999999999994671 ) ;
#121 = DIRECTION ( 'NONE',  ( 0.0000000000000000000, 1.000000000000000000, 0.0000000000000000000 ) ) ;
#122 = CLOSED_SHELL ( 'NONE', ( #13, #87, #162 ) ) ;
#123 = DIRECTION ( 'NONE',  ( 4.275831445896959482E-31, 1.000000000000000000, 1.224646799147353454E-16 ) ) ;
#124 = PERSON_AND_ORGANIZATION ( #97, #146 ) ;
#125 = APPROVAL_DATE_TIME ( #23, #31 ) ;
#126 = AXIS2_PLACEMENT_3D ( 'NONE', #141, #96, #112 ) ;
#127 = APPROVAL_PERSON_ORGANIZATION ( #147, #31, #51 ) ;
#128 = CALENDAR_DATE ( 2021, 8, 12 ) ;
#129 = PERSON_AND_ORGANIZATION ( #97, #146 ) ;
#130 = EDGE_CURVE ( 'NONE', #72, #72, #184, .T. ) ;
#131 = UNCERTAINTY_MEASURE_WITH_UNIT (LENGTH_MEASURE( 1.000000000000000082E-05 ), #161, 'distance_accuracy_value', 'NONE');
#132 = APPLICATION_PROTOCOL_DEFINITION ( 'international standard', 'config_control_design', 1994, #106 ) ;
#133 = CIRCLE ( 'NONE', #191, 2.499999999999992895 ) ;
#134 = CC_DESIGN_DATE_AND_TIME_ASSIGNMENT ( #34, #109, ( #1 ) ) ;
#135 = EDGE_LOOP ( 'NONE', ( #24 ) ) ;
#136 = EDGE_LOOP ( 'NONE', ( #181 ) ) ;
#137 = DIRECTION ( 'NONE',  ( -3.491481338843133355E-15, 1.224646799147353207E-16, -1.000000000000000000 ) ) ;
#138 = VERTEX_POINT ( 'NONE', #199 ) ;
#139 = CC_DESIGN_PERSON_AND_ORGANIZATION_ASSIGNMENT ( #124, #22, ( #153 ) ) ;
#140 = CARTESIAN_POINT ( 'NONE',  ( 0.0000000000000000000, 0.0000000000000000000, 0.0000000000000000000 ) ) ;
#141 = CARTESIAN_POINT ( 'NONE',  ( 5.586370142149013368E-14, -1.959434878635765131E-15, 16.00000000000000000 ) ) ;
#142 = DIRECTION ( 'NONE',  ( -3.491481338843133355E-15, 1.224646799147353207E-16, -1.000000000000000000 ) ) ;
#143 = CONICAL_SURFACE ( 'NONE', #195, 1.999999999999998668, 0.7853981633974479459 ) ;
#144 = PERSON_AND_ORGANIZATION ( #97, #146 ) ;
#145 = APPROVAL_STATUS ( 'not_yet_approved' ) ;
#146 = ORGANIZATION ( 'UNSPECIFIED', 'UNSPECIFIED', '' ) ;
#147 = PERSON_AND_ORGANIZATION ( #97, #146 ) ;
#148 = ADVANCED_BREP_SHAPE_REPRESENTATION ( '379724', ( #183, #48, #197 ), #7 ) ;
#149 = AXIS2_PLACEMENT_3D ( 'NONE', #198, #26, #60 ) ;
#150 = EDGE_CURVE ( 'NONE', #30, #30, #6, .T. ) ;
#151 = PRODUCT ( '379724', '379724', '', ( #86 ) ) ;
#152 = FACE_OUTER_BOUND ( 'NONE', #113, .T. ) ;
#153 = PRODUCT_DEFINITION_FORMATION_WITH_SPECIFIED_SOURCE ( 'ANY', '', #151, .NOT_KNOWN. ) ;
#154 = PLANE ( 'NONE',  #21 ) ;
#155 = EDGE_LOOP ( 'NONE', ( #42 ) ) ;
#156 = FACE_OUTER_BOUND ( 'NONE', #155, .T. ) ;
#157 = DIRECTION ( 'NONE',  ( 3.491481338843133355E-15, -1.224646799147353207E-16, 1.000000000000000000 ) ) ;
#158 = AXIS2_PLACEMENT_3D ( 'NONE', #100, #167, #10 ) ;
#159 = CC_DESIGN_APPROVAL ( #16, ( #153 ) ) ;
#160 = PERSON_AND_ORGANIZATION ( #97, #146 ) ;
#161 =( LENGTH_UNIT ( ) NAMED_UNIT ( * ) SI_UNIT ( .MILLI., .METRE. ) );
#162 = ADVANCED_FACE ( 'NONE', ( #14 ), #119, .T. ) ;
#163 = DATE_AND_TIME ( #202, #15 ) ;
#164 = DATE_AND_TIME ( #78, #179 ) ;
#165 = FACE_BOUND ( 'NONE', #170, .T. ) ;
#166 = CIRCLE ( 'NONE', #25, 2.499999999999994671 ) ;
#167 = DIRECTION ( 'NONE',  ( -3.491481338843133355E-15, 1.224646799147353207E-16, -1.000000000000000000 ) ) ;
#168 = CARTESIAN_POINT ( 'NONE',  ( 5.586370142149013368E-14, -1.959434878635765131E-15, 16.00000000000000000 ) ) ;
#169 = ORIENTED_EDGE ( 'NONE', *, *, #130, .T. ) ;
#170 = EDGE_LOOP ( 'NONE', ( #169 ) ) ;
#171 = CARTESIAN_POINT ( 'NONE',  ( 1.745740669421566678E-13, -6.123233995736766085E-15, 50.00000000000000000 ) ) ;
#172 = APPROVAL_PERSON_ORGANIZATION ( #129, #173, #37 ) ;
#173 = APPROVAL ( #145, 'UNSPECIFIED' ) ;
#174 = CARTESIAN_POINT ( 'NONE',  ( -6.413727576507131527E-31, 2.249632801925584666E-32, -1.836964587252313490E-16 ) ) ;
#175 = CARTESIAN_POINT ( 'NONE',  ( 1.728283262727351074E-13, 2.499999999999992895, 49.50000000000000000 ) ) ;
#176 = SECURITY_CLASSIFICATION_LEVEL ( 'unclassified' ) ;
#177 = COORDINATED_UNIVERSAL_TIME_OFFSET ( 1, 0, .AHEAD. ) ;
#178 = CC_DESIGN_PERSON_AND_ORGANIZATION_ASSIGNMENT ( #90, #49, ( #151 ) ) ;
#179 = LOCAL_TIME ( 10, 33, 50.00000000000000000, #193 ) ;
#180 = CARTESIAN_POINT ( 'NONE',  ( 5.586370142149013368E-14, 1.874699728327315168E-32, 16.00000000000000000 ) ) ;
#181 = ORIENTED_EDGE ( 'NONE', *, *, #61, .T. ) ;
#182 = ORIENTED_EDGE ( 'NONE', *, *, #150, .F. ) ;
#183 = MANIFOLD_SOLID_BREP ( 'Corps-Déplacer/Copier1[1]', #59 ) ;
#184 = CIRCLE ( 'NONE', #114, 1.999999999999998668 ) ;
#185 = CC_DESIGN_APPROVAL ( #31, ( #66 ) ) ;
#186 = DIRECTION ( 'NONE',  ( 3.491481338843133355E-15, -1.224646799147353207E-16, 1.000000000000000000 ) ) ;
#187 = DIRECTION ( 'NONE',  ( -3.491481338843133355E-15, 1.224646799147353207E-16, -1.000000000000000000 ) ) ;
#188 = DIRECTION ( 'NONE',  ( -3.491481338843133355E-15, 1.224646799147353207E-16, -1.000000000000000000 ) ) ;
#189 = COORDINATED_UNIVERSAL_TIME_OFFSET ( 1, 0, .AHEAD. ) ;
#190 = CALENDAR_DATE ( 2021, 8, 12 ) ;
#191 = AXIS2_PLACEMENT_3D ( 'NONE', #12, #137, #196 ) ;
#192 = CARTESIAN_POINT ( 'NONE',  ( 0.0000000000000000000, 0.0000000000000000000, 0.0000000000000000000 ) ) ;
#193 = COORDINATED_UNIVERSAL_TIME_OFFSET ( 1, 0, .AHEAD. ) ;
#194 = CC_DESIGN_DATE_AND_TIME_ASSIGNMENT ( #164, #4, ( #66 ) ) ;
#195 = AXIS2_PLACEMENT_3D ( 'NONE', #9, #82, #8 ) ;
#196 = DIRECTION ( 'NONE',  ( 4.275831445896958607E-31, 1.000000000000000000, 1.224646799147352961E-16 ) ) ;
#197 = AXIS2_PLACEMENT_3D ( 'NONE', #192, #104, #28 ) ;
#198 = CARTESIAN_POINT ( 'NONE',  ( 1.745740669421566678E-13, 1.499759782661847481E-32, 50.00000000000000000 ) ) ;
#199 = CARTESIAN_POINT ( 'NONE',  ( 5.586370142149013368E-14, 2.499999999999992895, 16.00000000000000000 ) ) ;
#200 = CARTESIAN_POINT ( 'NONE',  ( 5.586370142149013368E-14, 1.874699728327315168E-32, 16.00000000000000000 ) ) ;
#201 = DIRECTION ( 'NONE',  ( -4.275831445896958607E-31, -1.000000000000000000, -1.224646799147353207E-16 ) ) ;
#202 = CALENDAR_DATE ( 2021, 8, 12 ) ;
#203 = PERSON_AND_ORGANIZATION_ROLE ( 'creator' ) ;
ENDSEC;
END-ISO-10303-21;
