ISO-10303-21;
HEADER;
FILE_DESCRIPTION (( 'STEP AP203' ),
    '1' );
FILE_NAME ('379723.step',
    '2021-12-08T09:33:50',
    ( '' ),
    ( '' ),
    'SwSTEP 2.0',
    'SolidWorks 2019',
    '' );
FILE_SCHEMA (( 'CONFIG_CONTROL_DESIGN' ));
ENDSEC;

DATA;
#1 = ORIENTED_EDGE ( 'NONE', *, *, #142, .T. ) ;
#2 = PERSON_AND_ORGANIZATION ( #196, #174 ) ;
#3 =( LENGTH_UNIT ( ) NAMED_UNIT ( * ) SI_UNIT ( .MILLI., .METRE. ) );
#4 = CIRCLE ( 'NONE', #138, 1.999999999999998224 ) ;
#5 = CARTESIAN_POINT ( 'NONE',  ( 2.073939915272820834E-13, 2.999999999999988454, 59.39999999999999147 ) ) ;
#6 = DATE_TIME_ROLE ( 'creation_date' ) ;
#7 = CIRCLE ( 'NONE', #175, 2.999999999999995559 ) ;
#8 = APPROVAL ( #60, 'UNSPECIFIED' ) ;
#9 = PRODUCT_DEFINITION_FORMATION_WITH_SPECIFIED_SOURCE ( 'ANY', '', #204, .NOT_KNOWN. ) ;
#10 = ADVANCED_BREP_SHAPE_REPRESENTATION ( '379723', ( #118, #184, #116 ), #41 ) ;
#11 = DIRECTION ( 'NONE',  ( 3.491481338843133355E-15, -1.224646799147353207E-16, 1.000000000000000000 ) ) ;
#12 = CONICAL_SURFACE ( 'NONE', #171, 2.399999999999995470, 0.7853981633974457255 ) ;
#13 = FACE_OUTER_BOUND ( 'NONE', #213, .T. ) ;
#14 = DIRECTION ( 'NONE',  ( 0.0000000000000000000, -1.000000000000000000, 0.0000000000000000000 ) ) ;
#15 = EDGE_CURVE ( 'NONE', #202, #202, #79, .T. ) ;
#16 = CARTESIAN_POINT ( 'NONE',  ( -7.237214027672628299E-32, -1.999999999999998224, -2.072820480853725474E-17 ) ) ;
#17 = FACE_OUTER_BOUND ( 'NONE', #45, .T. ) ;
#18 = CALENDAR_DATE ( 2021, 8, 12 ) ;
#19 = EDGE_LOOP ( 'NONE', ( #1 ) ) ;
#20 = PERSON_AND_ORGANIZATION ( #196, #174 ) ;
#21 = CALENDAR_DATE ( 2021, 8, 12 ) ;
#22 = CALENDAR_DATE ( 2021, 8, 12 ) ;
#23 = MECHANICAL_CONTEXT ( 'NONE', #199, 'mechanical' ) ;
#24 = CIRCLE ( 'NONE', #74, 1.999999999999998224 ) ;
#25 = ADVANCED_FACE ( 'NONE', ( #95, #17 ), #133, .T. ) ;
#26 = FACE_OUTER_BOUND ( 'NONE', #162, .T. ) ;
#27 = AXIS2_PLACEMENT_3D ( 'NONE', #216, #43, #176 ) ;
#28 = AXIS2_PLACEMENT_3D ( 'NONE', #102, #11, #84 ) ;
#29 = ORIENTED_EDGE ( 'NONE', *, *, #142, .F. ) ;
#30 = ADVANCED_FACE ( 'NONE', ( #217, #67 ), #12, .T. ) ;
#31 = DIRECTION ( 'NONE',  ( 0.0000000000000000000, 1.000000000000000000, 0.0000000000000000000 ) ) ;
#32 = UNCERTAINTY_MEASURE_WITH_UNIT (LENGTH_MEASURE( 1.000000000000000082E-05 ), #3, 'distance_accuracy_value', 'NONE');
#33 = DIRECTION ( 'NONE',  ( -3.491481338843133355E-15, 1.224646799147353207E-16, -1.000000000000000000 ) ) ;
#34 = DIRECTION ( 'NONE',  ( 0.0000000000000000000, -1.000000000000000000, 0.0000000000000000000 ) ) ;
#35 = FACE_OUTER_BOUND ( 'NONE', #139, .T. ) ;
#36 = ADVANCED_FACE ( 'NONE', ( #150 ), #220, .T. ) ;
#37 = APPROVAL_PERSON_ORGANIZATION ( #105, #134, #170 ) ;
#38 = PERSON_AND_ORGANIZATION ( #196, #174 ) ;
#39 =( NAMED_UNIT ( * ) SI_UNIT ( $, .STERADIAN. ) SOLID_ANGLE_UNIT ( ) );
#40 = COORDINATED_UNIVERSAL_TIME_OFFSET ( 1, 0, .AHEAD. ) ;
#41 =( GEOMETRIC_REPRESENTATION_CONTEXT ( 3 ) GLOBAL_UNCERTAINTY_ASSIGNED_CONTEXT ( ( #32 ) ) GLOBAL_UNIT_ASSIGNED_CONTEXT ( ( #3, #122, #39 ) ) REPRESENTATION_CONTEXT ( 'NONE', 'WORKASPACE' ) );
#42 = LOCAL_TIME ( 10, 33, 50.00000000000000000, #127 ) ;
#43 = DIRECTION ( 'NONE',  ( -3.491481338843133355E-15, 1.276467311168695266E-16, -1.000000000000000000 ) ) ;
#44 = DIRECTION ( 'NONE',  ( 3.491481338843133355E-15, -1.224646799147353207E-16, 1.000000000000000000 ) ) ;
#45 = EDGE_LOOP ( 'NONE', ( #208 ) ) ;
#46 = CARTESIAN_POINT ( 'NONE',  ( 8.635149386594688650E-14, -2.999999999999997780, 24.73205080756885010 ) ) ;
#47 = CARTESIAN_POINT ( 'NONE',  ( 7.332110811570580046E-14, 2.249639673992777654E-32, 21.00000000000000000 ) ) ;
#48 = CC_DESIGN_PERSON_AND_ORGANIZATION_ASSIGNMENT ( #167, #156, ( #52 ) ) ;
#49 = DESIGN_CONTEXT ( 'detailed design', #193, 'design' ) ;
#50 = FACE_OUTER_BOUND ( 'NONE', #168, .T. ) ;
#51 = CARTESIAN_POINT ( 'NONE',  ( 2.073939915272820834E-13, -7.274401986935278213E-15, 59.39999999999999147 ) ) ;
#52 = PRODUCT_DEFINITION ( 'UNKNOWN', '', #9, #49 ) ;
#53 = PERSON_AND_ORGANIZATION_ROLE ( 'classification_officer' ) ;
#54 = CARTESIAN_POINT ( 'NONE',  ( 7.332110811570580046E-14, -2.000000000000000888, 21.00000000000000000 ) ) ;
#55 = ORIENTED_EDGE ( 'NONE', *, *, #112, .T. ) ;
#56 = EDGE_CURVE ( 'NONE', #85, #85, #110, .T. ) ;
#57 = APPROVAL_STATUS ( 'not_yet_approved' ) ;
#58 = COORDINATED_UNIVERSAL_TIME_OFFSET ( 1, 0, .AHEAD. ) ;
#59 = EDGE_LOOP ( 'NONE', ( #65 ) ) ;
#60 = APPROVAL_STATUS ( 'not_yet_approved' ) ;
#61 = EDGE_CURVE ( 'NONE', #100, #100, #198, .T. ) ;
#62 = AXIS2_PLACEMENT_3D ( 'NONE', #148, #147, #97 ) ;
#63 = AXIS2_PLACEMENT_3D ( 'NONE', #164, #69, #119 ) ;
#64 = CC_DESIGN_APPROVAL ( #144, ( #215 ) ) ;
#65 = ORIENTED_EDGE ( 'NONE', *, *, #205, .T. ) ;
#66 = CARTESIAN_POINT ( 'NONE',  ( 7.332110811570580046E-14, -2.680581353454260205E-15, 21.00000000000000000 ) ) ;
#67 = FACE_BOUND ( 'NONE', #113, .T. ) ;
#68 = PRODUCT_RELATED_PRODUCT_CATEGORY ( 'detail', '', ( #204 ) ) ;
#69 = DIRECTION ( 'NONE',  ( -3.491481338843133355E-15, 1.224646799147353207E-16, -1.000000000000000000 ) ) ;
#70 = CARTESIAN_POINT ( 'NONE',  ( 2.094888803305880013E-13, -7.347880794884118356E-15, 60.00000000000000000 ) ) ;
#71 = CARTESIAN_POINT ( 'NONE',  ( 2.094888803305880013E-13, -7.347880794884118356E-15, 60.00000000000000000 ) ) ;
#72 = PRODUCT_DEFINITION_SHAPE ( 'NONE', 'NONE',  #52 ) ;
#73 = PERSON_AND_ORGANIZATION_ROLE ( 'design_supplier' ) ;
#74 = AXIS2_PLACEMENT_3D ( 'NONE', #66, #101, #34 ) ;
#75 = EDGE_LOOP ( 'NONE', ( #55 ) ) ;
#76 = DATE_AND_TIME ( #21, #189 ) ;
#77 = SHAPE_DEFINITION_REPRESENTATION ( #72, #10 ) ;
#78 = APPROVAL_DATE_TIME ( #76, #134 ) ;
#79 = CIRCLE ( 'NONE', #27, 2.999999999999994671 ) ;
#80 = CC_DESIGN_SECURITY_CLASSIFICATION ( #215, ( #9 ) ) ;
#81 = CC_DESIGN_APPROVAL ( #134, ( #52 ) ) ;
#82 = EDGE_LOOP ( 'NONE', ( #91 ) ) ;
#83 = CARTESIAN_POINT ( 'NONE',  ( 7.332110811570580046E-14, -2.680581353454260205E-15, 21.00000000000000000 ) ) ;
#84 = DIRECTION ( 'NONE',  ( -4.275831445896958607E-31, -1.000000000000000000, -1.224646799147353207E-16 ) ) ;
#85 = VERTEX_POINT ( 'NONE', #183 ) ;
#86 = VERTEX_POINT ( 'NONE', #191 ) ;
#87 = CARTESIAN_POINT ( 'NONE',  ( 0.0000000000000000000, 0.0000000000000000000, 0.0000000000000000000 ) ) ;
#88 = APPROVAL_PERSON_ORGANIZATION ( #20, #8, #143 ) ;
#89 = APPROVAL_DATE_TIME ( #195, #8 ) ;
#90 = APPLICATION_PROTOCOL_DEFINITION ( 'international standard', 'config_control_design', 1994, #199 ) ;
#91 = ORIENTED_EDGE ( 'NONE', *, *, #61, .T. ) ;
#92 = PERSON_AND_ORGANIZATION ( #196, #174 ) ;
#93 = APPROVAL_ROLE ( '' ) ;
#94 = ADVANCED_FACE ( 'NONE', ( #161, #130 ), #185, .T. ) ;
#95 = FACE_OUTER_BOUND ( 'NONE', #19, .T. ) ;
#96 = AXIS2_PLACEMENT_3D ( 'NONE', #201, #114, #177 ) ;
#97 = DIRECTION ( 'NONE',  ( -4.456761796588770537E-31, -1.000000000000000000, -1.276467311168695266E-16 ) ) ;
#98 = AXIS2_PLACEMENT_3D ( 'NONE', #47, #151, #186 ) ;
#99 = PLANE ( 'NONE',  #63 ) ;
#100 = VERTEX_POINT ( 'NONE', #16 ) ;
#101 = DIRECTION ( 'NONE',  ( 3.491481338843133355E-15, -1.276467311168695266E-16, 1.000000000000000000 ) ) ;
#102 = CARTESIAN_POINT ( 'NONE',  ( -4.275871797476834564E-31, 1.499773936090829317E-32, -1.224658356299163601E-16 ) ) ;
#103 = EDGE_LOOP ( 'NONE', ( #29 ) ) ;
#104 = APPROVAL_DATE_TIME ( #108, #144 ) ;
#105 = PERSON_AND_ORGANIZATION ( #196, #174 ) ;
#106 = CC_DESIGN_PERSON_AND_ORGANIZATION_ASSIGNMENT ( #2, #73, ( #9 ) ) ;
#107 = VERTEX_POINT ( 'NONE', #5 ) ;
#108 = DATE_AND_TIME ( #155, #157 ) ;
#109 = ADVANCED_FACE ( 'NONE', ( #50 ), #99, .F. ) ;
#110 = CIRCLE ( 'NONE', #128, 2.399999999999995470 ) ;
#111 = CC_DESIGN_DATE_AND_TIME_ASSIGNMENT ( #137, #6, ( #52 ) ) ;
#112 = EDGE_CURVE ( 'NONE', #86, #86, #24, .T. ) ;
#113 = EDGE_LOOP ( 'NONE', ( #159 ) ) ;
#114 = DIRECTION ( 'NONE',  ( 3.491481338843133355E-15, -1.276467311168695266E-16, 1.000000000000000000 ) ) ;
#115 = CARTESIAN_POINT ( 'NONE',  ( -6.413839710158237013E-31, 0.0000000000000000000, -1.836996703606440502E-16 ) ) ;
#116 = AXIS2_PLACEMENT_3D ( 'NONE', #154, #214, #141 ) ;
#117 = PLANE ( 'NONE',  #28 ) ;
#118 = MANIFOLD_SOLID_BREP ( 'Corps-Déplacer/Copier1[1]', #172 ) ;
#119 = DIRECTION ( 'NONE',  ( 4.275831445896958607E-31, 1.000000000000000000, 1.224646799147353207E-16 ) ) ;
#120 = DIRECTION ( 'NONE',  ( 0.0000000000000000000, 1.000000000000000000, 0.0000000000000000000 ) ) ;
#121 = COORDINATED_UNIVERSAL_TIME_OFFSET ( 1, 0, .AHEAD. ) ;
#122 =( NAMED_UNIT ( * ) PLANE_ANGLE_UNIT ( ) SI_UNIT ( $, .RADIAN. ) );
#123 = SECURITY_CLASSIFICATION_LEVEL ( 'unclassified' ) ;
#124 = COORDINATED_UNIVERSAL_TIME_OFFSET ( 1, 0, .AHEAD. ) ;
#125 = CC_DESIGN_PERSON_AND_ORGANIZATION_ASSIGNMENT ( #211, #140, ( #204 ) ) ;
#126 = ORIENTED_EDGE ( 'NONE', *, *, #61, .F. ) ;
#127 = COORDINATED_UNIVERSAL_TIME_OFFSET ( 1, 0, .AHEAD. ) ;
#128 = AXIS2_PLACEMENT_3D ( 'NONE', #71, #135, #31 ) ;
#129 = AXIS2_PLACEMENT_3D ( 'NONE', #87, #181, #206 ) ;
#130 = FACE_OUTER_BOUND ( 'NONE', #179, .T. ) ;
#131 = DIRECTION ( 'NONE',  ( 3.491481338843133355E-15, -1.276467311168695266E-16, 1.000000000000000000 ) ) ;
#132 = DIRECTION ( 'NONE',  ( -3.491481338843133355E-15, 1.224646799147353207E-16, -1.000000000000000000 ) ) ;
#133 = CYLINDRICAL_SURFACE ( 'NONE', #129, 2.999999999999994671 ) ;
#134 = APPROVAL ( #57, 'UNSPECIFIED' ) ;
#135 = DIRECTION ( 'NONE',  ( -3.491481338843133355E-15, 1.224646799147353207E-16, -1.000000000000000000 ) ) ;
#136 = ORIENTED_EDGE ( 'NONE', *, *, #15, .T. ) ;
#137 = DATE_AND_TIME ( #18, #222 ) ;
#138 = AXIS2_PLACEMENT_3D ( 'NONE', #83, #131, #14 ) ;
#139 = EDGE_LOOP ( 'NONE', ( #136 ) ) ;
#140 = PERSON_AND_ORGANIZATION_ROLE ( 'design_owner' ) ;
#141 = DIRECTION ( 'NONE',  ( 1.000000000000000000, 0.0000000000000000000, 0.0000000000000000000 ) ) ;
#142 = EDGE_CURVE ( 'NONE', #107, #107, #7, .T. ) ;
#143 = APPROVAL_ROLE ( '' ) ;
#144 = APPROVAL ( #169, 'UNSPECIFIED' ) ;
#145 = ADVANCED_FACE ( 'NONE', ( #13 ), #203, .F. ) ;
#146 = DIRECTION ( 'NONE',  ( -4.275831445896958607E-31, -1.000000000000000000, -1.224646799147353207E-16 ) ) ;
#147 = DIRECTION ( 'NONE',  ( 3.491481338843133355E-15, -1.276467311168695266E-16, 1.000000000000000000 ) ) ;
#148 = CARTESIAN_POINT ( 'NONE',  ( 8.189802190410270581E-31, -5.339015077269668998E-32, 2.345652574252015888E-16 ) ) ;
#149 = CC_DESIGN_PERSON_AND_ORGANIZATION_ASSIGNMENT ( #209, #53, ( #215 ) ) ;
#150 = FACE_OUTER_BOUND ( 'NONE', #75, .T. ) ;
#151 = DIRECTION ( 'NONE',  ( 3.491481338843133355E-15, -1.224646799147353207E-16, 1.000000000000000000 ) ) ;
#152 = PERSON_AND_ORGANIZATION_ROLE ( 'creator' ) ;
#153 = DATE_TIME_ROLE ( 'classification_date' ) ;
#154 = CARTESIAN_POINT ( 'NONE',  ( 0.0000000000000000000, 0.0000000000000000000, 0.0000000000000000000 ) ) ;
#155 = CALENDAR_DATE ( 2021, 8, 12 ) ;
#156 = PERSON_AND_ORGANIZATION_ROLE ( 'creator' ) ;
#157 = LOCAL_TIME ( 10, 33, 50.00000000000000000, #58 ) ;
#158 = ADVANCED_FACE ( 'NONE', ( #223, #35 ), #197, .T. ) ;
#159 = ORIENTED_EDGE ( 'NONE', *, *, #56, .T. ) ;
#160 = CLOSED_SHELL ( 'NONE', ( #36, #94, #166 ) ) ;
#161 = FACE_OUTER_BOUND ( 'NONE', #82, .T. ) ;
#162 = EDGE_LOOP ( 'NONE', ( #126 ) ) ;
#163 = CC_DESIGN_APPROVAL ( #8, ( #9 ) ) ;
#164 = CARTESIAN_POINT ( 'NONE',  ( 2.094888803305880013E-13, 1.799711739194214624E-32, 60.00000000000000000 ) ) ;
#165 = DIRECTION ( 'NONE',  ( 0.0000000000000000000, 1.000000000000000000, 0.0000000000000000000 ) ) ;
#166 = ADVANCED_FACE ( 'NONE', ( #26 ), #117, .F. ) ;
#167 = PERSON_AND_ORGANIZATION ( #196, #174 ) ;
#168 = EDGE_LOOP ( 'NONE', ( #200 ) ) ;
#169 = APPROVAL_STATUS ( 'not_yet_approved' ) ;
#170 = APPROVAL_ROLE ( '' ) ;
#171 = AXIS2_PLACEMENT_3D ( 'NONE', #70, #33, #120 ) ;
#172 = CLOSED_SHELL ( 'NONE', ( #25, #30, #109, #158, #145 ) ) ;
#173 = CALENDAR_DATE ( 2021, 8, 12 ) ;
#174 = ORGANIZATION ( 'UNSPECIFIED', 'UNSPECIFIED', '' ) ;
#175 = AXIS2_PLACEMENT_3D ( 'NONE', #51, #132, #165 ) ;
#176 = DIRECTION ( 'NONE',  ( 0.0000000000000000000, -1.000000000000000000, 0.0000000000000000000 ) ) ;
#177 = DIRECTION ( 'NONE',  ( 0.0000000000000000000, -1.000000000000000000, 0.0000000000000000000 ) ) ;
#178 = AXIS2_PLACEMENT_3D ( 'NONE', #115, #207, #218 ) ;
#179 = EDGE_LOOP ( 'NONE', ( #210 ) ) ;
#180 = AXIS2_PLACEMENT_3D ( 'NONE', #219, #44, #146 ) ;
#181 = DIRECTION ( 'NONE',  ( -3.491481338843133355E-15, 1.224646799147353207E-16, -1.000000000000000000 ) ) ;
#182 = CC_DESIGN_DATE_AND_TIME_ASSIGNMENT ( #188, #153, ( #215 ) ) ;
#183 = CARTESIAN_POINT ( 'NONE',  ( 2.094888803305880013E-13, 2.399999999999987921, 60.00000000000000000 ) ) ;
#184 = MANIFOLD_SOLID_BREP ( 'Corps-Déplacer/Copier1[2]', #160 ) ;
#185 = CYLINDRICAL_SURFACE ( 'NONE', #178, 1.999999999999998224 ) ;
#186 = DIRECTION ( 'NONE',  ( -4.275831445896958607E-31, -1.000000000000000000, -1.224646799147353207E-16 ) ) ;
#187 = APPROVAL_PERSON_ORGANIZATION ( #38, #144, #93 ) ;
#188 = DATE_AND_TIME ( #22, #221 ) ;
#189 = LOCAL_TIME ( 10, 33, 50.00000000000000000, #124 ) ;
#190 = ORIENTED_EDGE ( 'NONE', *, *, #205, .F. ) ;
#191 = CARTESIAN_POINT ( 'NONE',  ( 7.332110811570580046E-14, -2.000000000000000888, 21.00000000000000000 ) ) ;
#192 = CC_DESIGN_PERSON_AND_ORGANIZATION_ASSIGNMENT ( #92, #152, ( #9 ) ) ;
#193 = APPLICATION_CONTEXT ( 'configuration controlled 3d designs of mechanical parts and assemblies' ) ;
#194 = VERTEX_POINT ( 'NONE', #54 ) ;
#195 = DATE_AND_TIME ( #173, #42 ) ;
#196 = PERSON ( 'UNSPECIFIED', 'UNSPECIFIED', 'UNSPECIFIED', ('UNSPECIFIED'), ('UNSPECIFIED'), ('UNSPECIFIED') ) ;
#197 = CONICAL_SURFACE ( 'NONE', #96, 6.999999999999999112, 0.2617993877991502405 ) ;
#198 = CIRCLE ( 'NONE', #62, 1.999999999999998224 ) ;
#199 = APPLICATION_CONTEXT ( 'configuration controlled 3d designs of mechanical parts and assemblies' ) ;
#200 = ORIENTED_EDGE ( 'NONE', *, *, #56, .F. ) ;
#201 = CARTESIAN_POINT ( 'NONE',  ( 1.384730368669115083E-13, -5.062501783195454053E-15, 39.66025403784433223 ) ) ;
#202 = VERTEX_POINT ( 'NONE', #46 ) ;
#203 = PLANE ( 'NONE',  #98 ) ;
#204 = PRODUCT ( '379723', '379723', '', ( #23 ) ) ;
#205 = EDGE_CURVE ( 'NONE', #194, #194, #4, .T. ) ;
#206 = DIRECTION ( 'NONE',  ( 4.275831445896959482E-31, 1.000000000000000000, 1.224646799147353207E-16 ) ) ;
#207 = DIRECTION ( 'NONE',  ( 3.491481338843133355E-15, -1.276467311168695266E-16, 1.000000000000000000 ) ) ;
#208 = ORIENTED_EDGE ( 'NONE', *, *, #15, .F. ) ;
#209 = PERSON_AND_ORGANIZATION ( #196, #174 ) ;
#210 = ORIENTED_EDGE ( 'NONE', *, *, #112, .F. ) ;
#211 = PERSON_AND_ORGANIZATION ( #196, #174 ) ;
#212 = APPLICATION_PROTOCOL_DEFINITION ( 'international standard', 'config_control_design', 1994, #193 ) ;
#213 = EDGE_LOOP ( 'NONE', ( #190 ) ) ;
#214 = DIRECTION ( 'NONE',  ( 0.0000000000000000000, 0.0000000000000000000, 1.000000000000000000 ) ) ;
#215 = SECURITY_CLASSIFICATION ( '', '', #123 ) ;
#216 = CARTESIAN_POINT ( 'NONE',  ( 8.635149386594688650E-14, -3.156965439402497161E-15, 24.73205080756885010 ) ) ;
#217 = FACE_OUTER_BOUND ( 'NONE', #103, .T. ) ;
#218 = DIRECTION ( 'NONE',  ( -4.456761796588770537E-31, -1.000000000000000000, -1.276467311168695019E-16 ) ) ;
#219 = CARTESIAN_POINT ( 'NONE',  ( 7.332110811570580046E-14, 2.249639673992777654E-32, 21.00000000000000000 ) ) ;
#220 = PLANE ( 'NONE',  #180 ) ;
#221 = LOCAL_TIME ( 10, 33, 50.00000000000000000, #40 ) ;
#222 = LOCAL_TIME ( 10, 33, 50.00000000000000000, #121 ) ;
#223 = FACE_BOUND ( 'NONE', #59, .T. ) ;
ENDSEC;
END-ISO-10303-21;
