ISO-10303-21;
HEADER;
FILE_DESCRIPTION (( 'STEP AP203' ),
    '1' );
FILE_NAME ('379721.step',
    '2021-12-08T09:33:49',
    ( '' ),
    ( '' ),
    'SwSTEP 2.0',
    'SolidWorks 2019',
    '' );
FILE_SCHEMA (( 'CONFIG_CONTROL_DESIGN' ));
ENDSEC;

DATA;
#1 = DATE_AND_TIME ( #221, #102 ) ;
#2 = MANIFOLD_SOLID_BREP ( 'Corps-Déplacer/Copier1[2]', #134 ) ;
#3 = CIRCLE ( 'NONE', #40, 1.999999999999998224 ) ;
#4 = EDGE_LOOP ( 'NONE', ( #39 ) ) ;
#5 = DIRECTION ( 'NONE',  ( 4.275831445896958607E-31, 1.000000000000000000, 1.224646799147353207E-16 ) ) ;
#6 = CIRCLE ( 'NONE', #125, 2.400000000000005684 ) ;
#7 = PLANE ( 'NONE',  #184 ) ;
#8 = EDGE_LOOP ( 'NONE', ( #91 ) ) ;
#9 = ORIENTED_EDGE ( 'NONE', *, *, #71, .T. ) ;
#10 = DIRECTION ( 'NONE',  ( 3.491481338843133355E-15, -1.276467311168695266E-16, 1.000000000000000000 ) ) ;
#11 = CALENDAR_DATE ( 2021, 8, 12 ) ;
#12 = AXIS2_PLACEMENT_3D ( 'NONE', #121, #104, #169 ) ;
#13 = CARTESIAN_POINT ( 'NONE',  ( -4.275870630573523203E-31, 1.499773526796244679E-32, -1.224658022084772044E-16 ) ) ;
#14 = CC_DESIGN_DATE_AND_TIME_ASSIGNMENT ( #1, #83, ( #167 ) ) ;
#15 = PLANE ( 'NONE',  #205 ) ;
#16 = PRODUCT_DEFINITION ( 'UNKNOWN', '', #110, #101 ) ;
#17 = CC_DESIGN_APPROVAL ( #37, ( #110 ) ) ;
#18 = DIRECTION ( 'NONE',  ( 0.0000000000000000000, -1.000000000000000000, 0.0000000000000000000 ) ) ;
#19 = EDGE_LOOP ( 'NONE', ( #41 ) ) ;
#20 = AXIS2_PLACEMENT_3D ( 'NONE', #139, #10, #170 ) ;
#21 = FACE_OUTER_BOUND ( 'NONE', #96, .T. ) ;
#22 = EDGE_LOOP ( 'NONE', ( #9 ) ) ;
#23 = FACE_BOUND ( 'NONE', #55, .T. ) ;
#24 = AXIS2_PLACEMENT_3D ( 'NONE', #196, #98, #217 ) ;
#25 = DIRECTION ( 'NONE',  ( 1.000000000000000000, 0.0000000000000000000, 0.0000000000000000000 ) ) ;
#26 = PRODUCT_DEFINITION_SHAPE ( 'NONE', 'NONE',  #16 ) ;
#27 = APPROVAL_DATE_TIME ( #111, #168 ) ;
#28 = MECHANICAL_CONTEXT ( 'NONE', #191, 'mechanical' ) ;
#29 = AXIS2_PLACEMENT_3D ( 'NONE', #153, #185, #207 ) ;
#30 = DIRECTION ( 'NONE',  ( 0.0000000000000000000, 1.000000000000000000, 0.0000000000000000000 ) ) ;
#31 = APPROVAL_STATUS ( 'not_yet_approved' ) ;
#32 = PERSON_AND_ORGANIZATION ( #43, #222 ) ;
#33 = COORDINATED_UNIVERSAL_TIME_OFFSET ( 1, 0, .AHEAD. ) ;
#34 = ADVANCED_FACE ( 'NONE', ( #106 ), #7, .F. ) ;
#35 = ADVANCED_BREP_SHAPE_REPRESENTATION ( '379721', ( #209, #2, #73 ), #86 ) ;
#36 = CARTESIAN_POINT ( 'NONE',  ( 3.526396152231565067E-13, 1.799711739194214624E-32, 101.0000000000000000 ) ) ;
#37 = APPROVAL ( #31, 'UNSPECIFIED' ) ;
#38 = EDGE_LOOP ( 'NONE', ( #155 ) ) ;
#39 = ORIENTED_EDGE ( 'NONE', *, *, #212, .F. ) ;
#40 = AXIS2_PLACEMENT_3D ( 'NONE', #94, #74, #123 ) ;
#41 = ORIENTED_EDGE ( 'NONE', *, *, #71, .F. ) ;
#42 = DIRECTION ( 'NONE',  ( -4.456761796588770537E-31, -1.000000000000000000, -1.276467311168695266E-16 ) ) ;
#43 = PERSON ( 'UNSPECIFIED', 'UNSPECIFIED', 'UNSPECIFIED', ('UNSPECIFIED'), ('UNSPECIFIED'), ('UNSPECIFIED') ) ;
#44 =( LENGTH_UNIT ( ) NAMED_UNIT ( * ) SI_UNIT ( .MILLI., .METRE. ) );
#45 = FACE_OUTER_BOUND ( 'NONE', #72, .T. ) ;
#46 = DIRECTION ( 'NONE',  ( -4.275831445896958607E-31, -1.000000000000000000, -1.224646799147353207E-16 ) ) ;
#47 = CARTESIAN_POINT ( 'NONE',  ( 3.505447264198505636E-13, 2.999999999999992895, 100.4000000000000057 ) ) ;
#48 = CARTESIAN_POINT ( 'NONE',  ( 5.492816181635876203E-14, -3.000000000000001332, 15.73205080756886964 ) ) ;
#49 = COORDINATED_UNIVERSAL_TIME_OFFSET ( 1, 0, .AHEAD. ) ;
#50 = COORDINATED_UNIVERSAL_TIME_OFFSET ( 1, 0, .AHEAD. ) ;
#51 = CLOSED_SHELL ( 'NONE', ( #160, #120, #34, #116, #63 ) ) ;
#52 = CC_DESIGN_PERSON_AND_ORGANIZATION_ASSIGNMENT ( #66, #100, ( #110 ) ) ;
#53 = ORIENTED_EDGE ( 'NONE', *, *, #150, .T. ) ;
#54 = LOCAL_TIME ( 10, 33, 49.00000000000000000, #50 ) ;
#55 = EDGE_LOOP ( 'NONE', ( #118 ) ) ;
#56 = CC_DESIGN_DATE_AND_TIME_ASSIGNMENT ( #201, #146, ( #16 ) ) ;
#57 = FACE_OUTER_BOUND ( 'NONE', #8, .T. ) ;
#58 = ORIENTED_EDGE ( 'NONE', *, *, #175, .F. ) ;
#59 = FACE_OUTER_BOUND ( 'NONE', #22, .T. ) ;
#60 = ORIENTED_EDGE ( 'NONE', *, *, #138, .T. ) ;
#61 = APPROVAL_PERSON_ORGANIZATION ( #180, #135, #178 ) ;
#62 = AXIS2_PLACEMENT_3D ( 'NONE', #141, #156, #172 ) ;
#63 = ADVANCED_FACE ( 'NONE', ( #190 ), #173, .F. ) ;
#64 = VERTEX_POINT ( 'NONE', #164 ) ;
#65 = FACE_OUTER_BOUND ( 'NONE', #19, .T. ) ;
#66 = PERSON_AND_ORGANIZATION ( #43, #222 ) ;
#67 = CC_DESIGN_APPROVAL ( #168, ( #16 ) ) ;
#68 = CALENDAR_DATE ( 2021, 8, 12 ) ;
#69 = CC_DESIGN_APPROVAL ( #135, ( #167 ) ) ;
#70 = AXIS2_PLACEMENT_3D ( 'NONE', #188, #76, #42 ) ;
#71 = EDGE_CURVE ( 'NONE', #78, #78, #3, .T. ) ;
#72 = EDGE_LOOP ( 'NONE', ( #60 ) ) ;
#73 = AXIS2_PLACEMENT_3D ( 'NONE', #145, #99, #25 ) ;
#74 = DIRECTION ( 'NONE',  ( 3.491481338843133355E-15, -1.276467311168695266E-16, 1.000000000000000000 ) ) ;
#75 = ORIENTED_EDGE ( 'NONE', *, *, #150, .F. ) ;
#76 = DIRECTION ( 'NONE',  ( 3.491481338843133355E-15, -1.276467311168695266E-16, 1.000000000000000000 ) ) ;
#77 = DIRECTION ( 'NONE',  ( -3.491481338843133355E-15, 1.224646799147353207E-16, -1.000000000000000000 ) ) ;
#78 = VERTEX_POINT ( 'NONE', #216 ) ;
#79 = CC_DESIGN_PERSON_AND_ORGANIZATION_ASSIGNMENT ( #32, #176, ( #181 ) ) ;
#80 = DIRECTION ( 'NONE',  ( -4.275831445896958607E-31, -1.000000000000000000, -1.224646799147353207E-16 ) ) ;
#81 = CIRCLE ( 'NONE', #29, 3.000000000000004885 ) ;
#82 = VERTEX_POINT ( 'NONE', #112 ) ;
#83 = DATE_TIME_ROLE ( 'classification_date' ) ;
#84 = CARTESIAN_POINT ( 'NONE',  ( 3.526396152231565067E-13, -1.236893267138826732E-14, 101.0000000000000000 ) ) ;
#85 = CC_DESIGN_PERSON_AND_ORGANIZATION_ASSIGNMENT ( #115, #127, ( #110 ) ) ;
#86 =( GEOMETRIC_REPRESENTATION_CONTEXT ( 3 ) GLOBAL_UNCERTAINTY_ASSIGNED_CONTEXT ( ( #89 ) ) GLOBAL_UNIT_ASSIGNED_CONTEXT ( ( #44, #126, #166 ) ) REPRESENTATION_CONTEXT ( 'NONE', 'WORKASPACE' ) );
#87 = APPROVAL_DATE_TIME ( #163, #135 ) ;
#88 = AXIS2_PLACEMENT_3D ( 'NONE', #186, #154, #128 ) ;
#89 = UNCERTAINTY_MEASURE_WITH_UNIT (LENGTH_MEASURE( 1.000000000000000082E-05 ), #44, 'distance_accuracy_value', 'NONE');
#90 = APPLICATION_CONTEXT ( 'configuration controlled 3d designs of mechanical parts and assemblies' ) ;
#91 = ORIENTED_EDGE ( 'NONE', *, *, #138, .F. ) ;
#92 = EDGE_LOOP ( 'NONE', ( #75 ) ) ;
#93 = FACE_OUTER_BOUND ( 'NONE', #92, .T. ) ;
#94 = CARTESIAN_POINT ( 'NONE',  ( 8.189802190410270581E-31, -5.339015077269668998E-32, 2.345652574252015888E-16 ) ) ;
#95 = CIRCLE ( 'NONE', #24, 1.999999999999997335 ) ;
#96 = EDGE_LOOP ( 'NONE', ( #187 ) ) ;
#97 = ADVANCED_FACE ( 'NONE', ( #59, #57 ), #140, .T. ) ;
#98 = DIRECTION ( 'NONE',  ( 3.491481338843133355E-15, -1.276467311168695266E-16, 1.000000000000000000 ) ) ;
#99 = DIRECTION ( 'NONE',  ( 0.0000000000000000000, 0.0000000000000000000, 1.000000000000000000 ) ) ;
#100 = PERSON_AND_ORGANIZATION_ROLE ( 'creator' ) ;
#101 = DESIGN_CONTEXT ( 'detailed design', #90, 'design' ) ;
#102 = LOCAL_TIME ( 10, 33, 49.00000000000000000, #49 ) ;
#103 = CC_DESIGN_PERSON_AND_ORGANIZATION_ASSIGNMENT ( #159, #130, ( #16 ) ) ;
#104 = DIRECTION ( 'NONE',  ( 3.491481338843133355E-15, -1.276467311168695266E-16, 1.000000000000000000 ) ) ;
#105 = EDGE_LOOP ( 'NONE', ( #148 ) ) ;
#106 = FACE_OUTER_BOUND ( 'NONE', #4, .T. ) ;
#107 = FACE_BOUND ( 'NONE', #105, .T. ) ;
#108 = FACE_OUTER_BOUND ( 'NONE', #208, .T. ) ;
#109 = APPROVAL_ROLE ( '' ) ;
#110 = PRODUCT_DEFINITION_FORMATION_WITH_SPECIFIED_SOURCE ( 'ANY', '', #181, .NOT_KNOWN. ) ;
#111 = DATE_AND_TIME ( #11, #117 ) ;
#112 = CARTESIAN_POINT ( 'NONE',  ( 3.526396152231565067E-13, 2.399999999999993250, 101.0000000000000000 ) ) ;
#113 = APPROVAL_ROLE ( '' ) ;
#114 = PLANE ( 'NONE',  #152 ) ;
#115 = PERSON_AND_ORGANIZATION ( #43, #222 ) ;
#116 = ADVANCED_FACE ( 'NONE', ( #107, #108 ), #122, .T. ) ;
#117 = LOCAL_TIME ( 10, 33, 49.00000000000000000, #194 ) ;
#118 = ORIENTED_EDGE ( 'NONE', *, *, #212, .T. ) ;
#119 = CYLINDRICAL_SURFACE ( 'NONE', #88, 2.999999999999999112 ) ;
#120 = ADVANCED_FACE ( 'NONE', ( #210, #23 ), #161, .T. ) ;
#121 = CARTESIAN_POINT ( 'NONE',  ( 4.189777606611760026E-14, -1.531760773402434319E-15, 12.00000000000000000 ) ) ;
#122 = CONICAL_SURFACE ( 'NONE', #20, 6.999999999999998224, 0.2617993877991501850 ) ;
#123 = DIRECTION ( 'NONE',  ( -4.456761796588770537E-31, -1.000000000000000000, -1.276467311168695266E-16 ) ) ;
#124 = APPLICATION_PROTOCOL_DEFINITION ( 'international standard', 'config_control_design', 1994, #90 ) ;
#125 = AXIS2_PLACEMENT_3D ( 'NONE', #84, #174, #30 ) ;
#126 =( NAMED_UNIT ( * ) PLANE_ANGLE_UNIT ( ) SI_UNIT ( $, .RADIAN. ) );
#127 = PERSON_AND_ORGANIZATION_ROLE ( 'design_supplier' ) ;
#128 = DIRECTION ( 'NONE',  ( 4.275831445896958607E-31, 1.000000000000000000, 1.224646799147353207E-16 ) ) ;
#129 = PERSON_AND_ORGANIZATION_ROLE ( 'classification_officer' ) ;
#130 = PERSON_AND_ORGANIZATION_ROLE ( 'creator' ) ;
#131 = EDGE_CURVE ( 'NONE', #199, #199, #81, .T. ) ;
#132 = CALENDAR_DATE ( 2021, 8, 12 ) ;
#133 = LOCAL_TIME ( 10, 33, 49.00000000000000000, #218 ) ;
#134 = CLOSED_SHELL ( 'NONE', ( #202, #97, #193 ) ) ;
#135 = APPROVAL ( #165, 'UNSPECIFIED' ) ;
#136 = APPROVAL_PERSON_ORGANIZATION ( #223, #37, #113 ) ;
#137 = CARTESIAN_POINT ( 'NONE',  ( 3.526396152231565067E-13, -1.236893267138826732E-14, 101.0000000000000000 ) ) ;
#138 = EDGE_CURVE ( 'NONE', #144, #144, #203, .T. ) ;
#139 = CARTESIAN_POINT ( 'NONE',  ( 1.070497048173233207E-13, -3.913681203143628758E-15, 30.66025403784433223 ) ) ;
#140 = CYLINDRICAL_SURFACE ( 'NONE', #70, 1.999999999999997780 ) ;
#141 = CARTESIAN_POINT ( 'NONE',  ( 4.189777606611760026E-14, 2.249639673992780117E-32, 12.00000000000000000 ) ) ;
#142 = DIRECTION ( 'NONE',  ( 0.0000000000000000000, 1.000000000000000000, 0.0000000000000000000 ) ) ;
#143 = SECURITY_CLASSIFICATION_LEVEL ( 'unclassified' ) ;
#144 = VERTEX_POINT ( 'NONE', #213 ) ;
#145 = CARTESIAN_POINT ( 'NONE',  ( 0.0000000000000000000, 0.0000000000000000000, 0.0000000000000000000 ) ) ;
#146 = DATE_TIME_ROLE ( 'creation_date' ) ;
#147 = APPROVAL_PERSON_ORGANIZATION ( #162, #168, #109 ) ;
#148 = ORIENTED_EDGE ( 'NONE', *, *, #175, .T. ) ;
#149 = AXIS2_PLACEMENT_3D ( 'NONE', #206, #171, #18 ) ;
#150 = EDGE_CURVE ( 'NONE', #211, #211, #179, .T. ) ;
#151 = DIRECTION ( 'NONE',  ( -3.491481338843133355E-15, 1.224646799147353207E-16, -1.000000000000000000 ) ) ;
#152 = AXIS2_PLACEMENT_3D ( 'NONE', #157, #220, #80 ) ;
#153 = CARTESIAN_POINT ( 'NONE',  ( 3.505447264198505636E-13, -1.229545386343942718E-14, 100.4000000000000057 ) ) ;
#154 = DIRECTION ( 'NONE',  ( -3.491481338843133355E-15, 1.224646799147353207E-16, -1.000000000000000000 ) ) ;
#155 = ORIENTED_EDGE ( 'NONE', *, *, #131, .F. ) ;
#156 = DIRECTION ( 'NONE',  ( 3.491481338843133355E-15, -1.224646799147353207E-16, 1.000000000000000000 ) ) ;
#157 = CARTESIAN_POINT ( 'NONE',  ( 4.189777606611760026E-14, 2.249639673992780117E-32, 12.00000000000000000 ) ) ;
#158 = CC_DESIGN_SECURITY_CLASSIFICATION ( #167, ( #110 ) ) ;
#159 = PERSON_AND_ORGANIZATION ( #43, #222 ) ;
#160 = ADVANCED_FACE ( 'NONE', ( #21, #93 ), #119, .T. ) ;
#161 = CONICAL_SURFACE ( 'NONE', #215, 2.400000000000005684, 0.7853981633974447263 ) ;
#162 = PERSON_AND_ORGANIZATION ( #43, #222 ) ;
#163 = DATE_AND_TIME ( #183, #133 ) ;
#164 = CARTESIAN_POINT ( 'NONE',  ( 4.189777606611760026E-14, -1.999999999999999112, 12.00000000000000000 ) ) ;
#165 = APPROVAL_STATUS ( 'not_yet_approved' ) ;
#166 =( NAMED_UNIT ( * ) SI_UNIT ( $, .STERADIAN. ) SOLID_ANGLE_UNIT ( ) );
#167 = SECURITY_CLASSIFICATION ( '', '', #143 ) ;
#168 = APPROVAL ( #192, 'UNSPECIFIED' ) ;
#169 = DIRECTION ( 'NONE',  ( 0.0000000000000000000, -1.000000000000000000, 0.0000000000000000000 ) ) ;
#170 = DIRECTION ( 'NONE',  ( 0.0000000000000000000, -1.000000000000000000, 0.0000000000000000000 ) ) ;
#171 = DIRECTION ( 'NONE',  ( -3.491481338843133355E-15, 1.276467311168695266E-16, -1.000000000000000000 ) ) ;
#172 = DIRECTION ( 'NONE',  ( -4.275831445896958607E-31, -1.000000000000000000, -1.224646799147353207E-16 ) ) ;
#173 = PLANE ( 'NONE',  #62 ) ;
#174 = DIRECTION ( 'NONE',  ( -3.491481338843133355E-15, 1.224646799147353207E-16, -1.000000000000000000 ) ) ;
#175 = EDGE_CURVE ( 'NONE', #64, #64, #95, .T. ) ;
#176 = PERSON_AND_ORGANIZATION_ROLE ( 'design_owner' ) ;
#177 = DIRECTION ( 'NONE',  ( 3.491481338843133355E-15, -1.224646799147353207E-16, 1.000000000000000000 ) ) ;
#178 = APPROVAL_ROLE ( '' ) ;
#179 = CIRCLE ( 'NONE', #149, 2.999999999999999112 ) ;
#180 = PERSON_AND_ORGANIZATION ( #43, #222 ) ;
#181 = PRODUCT ( '379721', '379721', '', ( #28 ) ) ;
#182 = PERSON_AND_ORGANIZATION ( #43, #222 ) ;
#183 = CALENDAR_DATE ( 2021, 8, 12 ) ;
#184 = AXIS2_PLACEMENT_3D ( 'NONE', #36, #151, #5 ) ;
#185 = DIRECTION ( 'NONE',  ( -3.491481338843133355E-15, 1.224646799147353207E-16, -1.000000000000000000 ) ) ;
#186 = CARTESIAN_POINT ( 'NONE',  ( 0.0000000000000000000, 0.0000000000000000000, 0.0000000000000000000 ) ) ;
#187 = ORIENTED_EDGE ( 'NONE', *, *, #131, .T. ) ;
#188 = CARTESIAN_POINT ( 'NONE',  ( -6.413839710158237013E-31, 0.0000000000000000000, -1.836996703606440502E-16 ) ) ;
#189 = PRODUCT_RELATED_PRODUCT_CATEGORY ( 'detail', '', ( #181 ) ) ;
#190 = FACE_OUTER_BOUND ( 'NONE', #204, .T. ) ;
#191 = APPLICATION_CONTEXT ( 'configuration controlled 3d designs of mechanical parts and assemblies' ) ;
#192 = APPROVAL_STATUS ( 'not_yet_approved' ) ;
#193 = ADVANCED_FACE ( 'NONE', ( #65 ), #15, .F. ) ;
#194 = COORDINATED_UNIVERSAL_TIME_OFFSET ( 1, 0, .AHEAD. ) ;
#195 = LOCAL_TIME ( 10, 33, 49.00000000000000000, #33 ) ;
#196 = CARTESIAN_POINT ( 'NONE',  ( 4.189777606611760026E-14, -1.531760773402434319E-15, 12.00000000000000000 ) ) ;
#197 = SHAPE_DEFINITION_REPRESENTATION ( #26, #35 ) ;
#198 = APPLICATION_PROTOCOL_DEFINITION ( 'international standard', 'config_control_design', 1994, #191 ) ;
#199 = VERTEX_POINT ( 'NONE', #47 ) ;
#200 = DATE_AND_TIME ( #132, #195 ) ;
#201 = DATE_AND_TIME ( #68, #54 ) ;
#202 = ADVANCED_FACE ( 'NONE', ( #45 ), #114, .T. ) ;
#203 = CIRCLE ( 'NONE', #12, 1.999999999999997335 ) ;
#204 = EDGE_LOOP ( 'NONE', ( #58 ) ) ;
#205 = AXIS2_PLACEMENT_3D ( 'NONE', #13, #177, #46 ) ;
#206 = CARTESIAN_POINT ( 'NONE',  ( 5.492816181635876203E-14, -2.008144859350673443E-15, 15.73205080756886964 ) ) ;
#207 = DIRECTION ( 'NONE',  ( 0.0000000000000000000, 1.000000000000000000, 0.0000000000000000000 ) ) ;
#208 = EDGE_LOOP ( 'NONE', ( #53 ) ) ;
#209 = MANIFOLD_SOLID_BREP ( 'Corps-Déplacer/Copier1[1]', #51 ) ;
#210 = FACE_OUTER_BOUND ( 'NONE', #38, .T. ) ;
#211 = VERTEX_POINT ( 'NONE', #48 ) ;
#212 = EDGE_CURVE ( 'NONE', #82, #82, #6, .T. ) ;
#213 = CARTESIAN_POINT ( 'NONE',  ( 4.189777606611760026E-14, -1.999999999999999112, 12.00000000000000000 ) ) ;
#214 = APPROVAL_DATE_TIME ( #200, #37 ) ;
#215 = AXIS2_PLACEMENT_3D ( 'NONE', #137, #77, #142 ) ;
#216 = CARTESIAN_POINT ( 'NONE',  ( -7.237214027672628299E-32, -1.999999999999998224, -2.072820480853725474E-17 ) ) ;
#217 = DIRECTION ( 'NONE',  ( 0.0000000000000000000, -1.000000000000000000, 0.0000000000000000000 ) ) ;
#218 = COORDINATED_UNIVERSAL_TIME_OFFSET ( 1, 0, .AHEAD. ) ;
#219 = CC_DESIGN_PERSON_AND_ORGANIZATION_ASSIGNMENT ( #182, #129, ( #167 ) ) ;
#220 = DIRECTION ( 'NONE',  ( 3.491481338843133355E-15, -1.224646799147353207E-16, 1.000000000000000000 ) ) ;
#221 = CALENDAR_DATE ( 2021, 8, 12 ) ;
#222 = ORGANIZATION ( 'UNSPECIFIED', 'UNSPECIFIED', '' ) ;
#223 = PERSON_AND_ORGANIZATION ( #43, #222 ) ;
ENDSEC;
END-ISO-10303-21;
