ISO-10303-21;
HEADER;
FILE_DESCRIPTION (( 'STEP AP203' ),
    '1' );
FILE_NAME ('379720.step',
    '2021-12-08T09:33:48',
    ( '' ),
    ( '' ),
    'SwSTEP 2.0',
    'SolidWorks 2019',
    '' );
FILE_SCHEMA (( 'CONFIG_CONTROL_DESIGN' ));
ENDSEC;

DATA;
#1 = APPROVAL_DATE_TIME ( #116, #135 ) ;
#2 = CYLINDRICAL_SURFACE ( 'NONE', #171, 1.999999999999995781 ) ;
#3 = AXIS2_PLACEMENT_3D ( 'NONE', #169, #85, #49 ) ;
#4 = DIRECTION ( 'NONE',  ( -3.491481338843133355E-15, 1.224646799147353207E-16, -1.000000000000000000 ) ) ;
#5 = FACE_OUTER_BOUND ( 'NONE', #92, .T. ) ;
#6 = AXIS2_PLACEMENT_3D ( 'NONE', #68, #118, #142 ) ;
#7 = DIRECTION ( 'NONE',  ( 0.0000000000000000000, 1.000000000000000000, 0.0000000000000000000 ) ) ;
#8 = APPROVAL_ROLE ( '' ) ;
#9 = DIRECTION ( 'NONE',  ( 1.000000000000000000, 0.0000000000000000000, 0.0000000000000000000 ) ) ;
#10 = PERSON_AND_ORGANIZATION ( #77, #182 ) ;
#11 = ORIENTED_EDGE ( 'NONE', *, *, #133, .T. ) ;
#12 = COORDINATED_UNIVERSAL_TIME_OFFSET ( 1, 0, .AHEAD. ) ;
#13 = CALENDAR_DATE ( 2021, 8, 12 ) ;
#14 = ADVANCED_FACE ( 'NONE', ( #63 ), #53, .F. ) ;
#15 = COORDINATED_UNIVERSAL_TIME_OFFSET ( 1, 0, .AHEAD. ) ;
#16 = CC_DESIGN_PERSON_AND_ORGANIZATION_ASSIGNMENT ( #201, #130, ( #145 ) ) ;
#17 = FACE_OUTER_BOUND ( 'NONE', #96, .T. ) ;
#18 = COORDINATED_UNIVERSAL_TIME_OFFSET ( 1, 0, .AHEAD. ) ;
#19 = EDGE_CURVE ( 'NONE', #95, #95, #21, .T. ) ;
#20 = APPROVAL_PERSON_ORGANIZATION ( #10, #203, #8 ) ;
#21 = CIRCLE ( 'NONE', #3, 1.999999999999994005 ) ;
#22 = LOCAL_TIME ( 10, 33, 48.00000000000000000, #31 ) ;
#23 = FACE_BOUND ( 'NONE', #149, .T. ) ;
#24 = DIRECTION ( 'NONE',  ( 0.0000000000000000000, 1.000000000000000000, 0.0000000000000000000 ) ) ;
#25 = CARTESIAN_POINT ( 'NONE',  ( 2.094888803305880013E-13, -7.347880794884118356E-15, 60.00000000000000000 ) ) ;
#26 = DIRECTION ( 'NONE',  ( -3.491481338843133355E-15, 1.224646799147353207E-16, -1.000000000000000000 ) ) ;
#27 = LOCAL_TIME ( 10, 33, 48.00000000000000000, #12 ) ;
#28 = PERSON_AND_ORGANIZATION ( #77, #182 ) ;
#29 = VERTEX_POINT ( 'NONE', #30 ) ;
#30 = CARTESIAN_POINT ( 'NONE',  ( 2.094888803305880013E-13, 1.599999999999994094, 60.00000000000000000 ) ) ;
#31 = COORDINATED_UNIVERSAL_TIME_OFFSET ( 1, 0, .AHEAD. ) ;
#32 =( GEOMETRIC_REPRESENTATION_CONTEXT ( 3 ) GLOBAL_UNCERTAINTY_ASSIGNED_CONTEXT ( ( #117 ) ) GLOBAL_UNIT_ASSIGNED_CONTEXT ( ( #147, #202, #103 ) ) REPRESENTATION_CONTEXT ( 'NONE', 'WORKASPACE' ) );
#33 = FACE_OUTER_BOUND ( 'NONE', #39, .T. ) ;
#34 = DATE_AND_TIME ( #13, #48 ) ;
#35 = DIRECTION ( 'NONE',  ( 0.0000000000000000000, 1.000000000000000000, 0.0000000000000000000 ) ) ;
#36 = CC_DESIGN_APPROVAL ( #135, ( #64 ) ) ;
#37 = DIRECTION ( 'NONE',  ( -3.491481338843133355E-15, 1.224646799147353207E-16, -1.000000000000000000 ) ) ;
#38 = ADVANCED_FACE ( 'NONE', ( #194, #17 ), #2, .T. ) ;
#39 = EDGE_LOOP ( 'NONE', ( #188 ) ) ;
#40 = ADVANCED_FACE ( 'NONE', ( #33 ), #111, .F. ) ;
#41 = CARTESIAN_POINT ( 'NONE',  ( 8.728703347107833388E-14, 1.999999999999994005, 25.00000000000000000 ) ) ;
#42 = AXIS2_PLACEMENT_3D ( 'NONE', #99, #155, #84 ) ;
#43 = PERSON_AND_ORGANIZATION_ROLE ( 'classification_officer' ) ;
#44 = APPROVAL_ROLE ( '' ) ;
#45 = EDGE_LOOP ( 'NONE', ( #62 ) ) ;
#46 = DIRECTION ( 'NONE',  ( 4.275831445896958607E-31, 1.000000000000000000, 1.224646799147352961E-16 ) ) ;
#47 = MANIFOLD_SOLID_BREP ( 'Corps-Déplacer/Copier1[2]', #120 ) ;
#48 = LOCAL_TIME ( 10, 33, 48.00000000000000000, #15 ) ;
#49 = DIRECTION ( 'NONE',  ( 4.275831445896959482E-31, 1.000000000000000000, 1.224646799147353207E-16 ) ) ;
#50 = CC_DESIGN_APPROVAL ( #108, ( #145 ) ) ;
#51 = CC_DESIGN_PERSON_AND_ORGANIZATION_ASSIGNMENT ( #28, #162, ( #89 ) ) ;
#52 = FACE_OUTER_BOUND ( 'NONE', #179, .T. ) ;
#53 = PLANE ( 'NONE',  #6 ) ;
#54 = DATE_AND_TIME ( #72, #27 ) ;
#55 = AXIS2_PLACEMENT_3D ( 'NONE', #157, #143, #140 ) ;
#56 = APPROVAL_PERSON_ORGANIZATION ( #134, #108, #44 ) ;
#57 = FACE_OUTER_BOUND ( 'NONE', #88, .T. ) ;
#58 = PRODUCT_DEFINITION_SHAPE ( 'NONE', 'NONE',  #87 ) ;
#59 = MECHANICAL_CONTEXT ( 'NONE', #177, 'mechanical' ) ;
#60 = DIRECTION ( 'NONE',  ( 4.275831445896958607E-31, 1.000000000000000000, 1.224646799147353207E-16 ) ) ;
#61 = DATE_AND_TIME ( #110, #91 ) ;
#62 = ORIENTED_EDGE ( 'NONE', *, *, #152, .F. ) ;
#63 = FACE_OUTER_BOUND ( 'NONE', #126, .T. ) ;
#64 = SECURITY_CLASSIFICATION ( '', '', #154 ) ;
#65 = PERSON_AND_ORGANIZATION_ROLE ( 'creator' ) ;
#66 = FACE_OUTER_BOUND ( 'NONE', #186, .T. ) ;
#67 = DESIGN_CONTEXT ( 'detailed design', #161, 'design' ) ;
#68 = CARTESIAN_POINT ( 'NONE',  ( -5.344769715032894940E-31, 1.874692856260121358E-32, -1.530802887465476112E-16 ) ) ;
#69 = CIRCLE ( 'NONE', #187, 1.999999999999997113 ) ;
#70 = CC_DESIGN_SECURITY_CLASSIFICATION ( #64, ( #145 ) ) ;
#71 = FACE_OUTER_BOUND ( 'NONE', #45, .T. ) ;
#72 = CALENDAR_DATE ( 2021, 8, 12 ) ;
#73 = APPROVAL_PERSON_ORGANIZATION ( #97, #135, #153 ) ;
#74 = EDGE_LOOP ( 'NONE', ( #98 ) ) ;
#75 = CARTESIAN_POINT ( 'NONE',  ( -2.137876538271898504E-31, 1.999999999999994005, -6.123121766362532060E-17 ) ) ;
#76 = APPROVAL_DATE_TIME ( #34, #108 ) ;
#77 = PERSON ( 'UNSPECIFIED', 'UNSPECIFIED', 'UNSPECIFIED', ('UNSPECIFIED'), ('UNSPECIFIED'), ('UNSPECIFIED') ) ;
#78 = CONICAL_SURFACE ( 'NONE', #195, 1.600000000000001421, 0.7853981633974512766 ) ;
#79 = APPROVAL_STATUS ( 'not_yet_approved' ) ;
#80 = PERSON_AND_ORGANIZATION ( #77, #182 ) ;
#81 = ADVANCED_FACE ( 'NONE', ( #66, #23 ), #78, .T. ) ;
#82 = CARTESIAN_POINT ( 'NONE',  ( 0.0000000000000000000, 0.0000000000000000000, 0.0000000000000000000 ) ) ;
#83 = DATE_AND_TIME ( #151, #138 ) ;
#84 = DIRECTION ( 'NONE',  ( 4.275831445896958607E-31, 1.000000000000000000, 1.224646799147353207E-16 ) ) ;
#85 = DIRECTION ( 'NONE',  ( -3.491481338843133355E-15, 1.224646799147353207E-16, -1.000000000000000000 ) ) ;
#86 = DIRECTION ( 'NONE',  ( -4.275831445896958607E-31, -1.000000000000000000, -1.224646799147353207E-16 ) ) ;
#87 = PRODUCT_DEFINITION ( 'UNKNOWN', '', #145, #67 ) ;
#88 = EDGE_LOOP ( 'NONE', ( #11 ) ) ;
#89 = PRODUCT ( '379720', '379720', '', ( #59 ) ) ;
#90 = ADVANCED_BREP_SHAPE_REPRESENTATION ( '379720', ( #185, #47, #124 ), #32 ) ;
#91 = LOCAL_TIME ( 10, 33, 48.00000000000000000, #139 ) ;
#92 = EDGE_LOOP ( 'NONE', ( #144 ) ) ;
#93 = APPROVAL_STATUS ( 'not_yet_approved' ) ;
#94 = CARTESIAN_POINT ( 'NONE',  ( 2.094888803305880013E-13, -7.347880794884118356E-15, 60.00000000000000000 ) ) ;
#95 = VERTEX_POINT ( 'NONE', #75 ) ;
#96 = EDGE_LOOP ( 'NONE', ( #112 ) ) ;
#97 = PERSON_AND_ORGANIZATION ( #77, #182 ) ;
#98 = ORIENTED_EDGE ( 'NONE', *, *, #19, .F. ) ;
#99 = CARTESIAN_POINT ( 'NONE',  ( 2.094888803305880013E-13, 1.199807826129476233E-32, 60.00000000000000000 ) ) ;
#100 = ADVANCED_FACE ( 'NONE', ( #52 ), #180, .T. ) ;
#101 = SHAPE_DEFINITION_REPRESENTATION ( #58, #90 ) ;
#102 = CARTESIAN_POINT ( 'NONE',  ( 8.728703347107833388E-14, 1.499759782661850766E-32, 25.00000000000000000 ) ) ;
#103 =( NAMED_UNIT ( * ) SI_UNIT ( $, .STERADIAN. ) SOLID_ANGLE_UNIT ( ) );
#104 = PERSON_AND_ORGANIZATION ( #77, #182 ) ;
#105 = CARTESIAN_POINT ( 'NONE',  ( 0.0000000000000000000, 0.0000000000000000000, 0.0000000000000000000 ) ) ;
#106 = ORIENTED_EDGE ( 'NONE', *, *, #133, .F. ) ;
#107 = DIRECTION ( 'NONE',  ( -3.491481338843133355E-15, 1.224646799147353207E-16, -1.000000000000000000 ) ) ;
#108 = APPROVAL ( #178, 'UNSPECIFIED' ) ;
#109 = AXIS2_PLACEMENT_3D ( 'NONE', #94, #26, #165 ) ;
#110 = CALENDAR_DATE ( 2021, 8, 12 ) ;
#111 = PLANE ( 'NONE',  #42 ) ;
#112 = ORIENTED_EDGE ( 'NONE', *, *, #170, .T. ) ;
#113 = CIRCLE ( 'NONE', #132, 1.999999999999997113 ) ;
#114 = CC_DESIGN_DATE_AND_TIME_ASSIGNMENT ( #61, #193, ( #64 ) ) ;
#115 = CC_DESIGN_APPROVAL ( #203, ( #87 ) ) ;
#116 = DATE_AND_TIME ( #192, #22 ) ;
#117 = UNCERTAINTY_MEASURE_WITH_UNIT (LENGTH_MEASURE( 1.000000000000000082E-05 ), #147, 'distance_accuracy_value', 'NONE');
#118 = DIRECTION ( 'NONE',  ( 3.491481338843133355E-15, -1.224646799147353207E-16, 1.000000000000000000 ) ) ;
#119 = CARTESIAN_POINT ( 'NONE',  ( 2.080922877950507480E-13, -7.298894922918224927E-15, 59.60000000000000142 ) ) ;
#120 = CLOSED_SHELL ( 'NONE', ( #14, #38, #100 ) ) ;
#121 = CARTESIAN_POINT ( 'NONE',  ( 8.728703347107833388E-14, -3.061616997868383043E-15, 25.00000000000000000 ) ) ;
#122 = VERTEX_POINT ( 'NONE', #175 ) ;
#123 = AXIS2_PLACEMENT_3D ( 'NONE', #102, #146, #86 ) ;
#124 = AXIS2_PLACEMENT_3D ( 'NONE', #105, #164, #9 ) ;
#125 = CARTESIAN_POINT ( 'NONE',  ( 0.0000000000000000000, 0.0000000000000000000, 0.0000000000000000000 ) ) ;
#126 = EDGE_LOOP ( 'NONE', ( #136 ) ) ;
#127 = ADVANCED_FACE ( 'NONE', ( #5 ), #158, .F. ) ;
#128 = APPROVAL_DATE_TIME ( #54, #203 ) ;
#129 = VERTEX_POINT ( 'NONE', #41 ) ;
#130 = PERSON_AND_ORGANIZATION_ROLE ( 'design_supplier' ) ;
#131 = CIRCLE ( 'NONE', #198, 2.000000000000001332 ) ;
#132 = AXIS2_PLACEMENT_3D ( 'NONE', #181, #37, #196 ) ;
#133 = EDGE_CURVE ( 'NONE', #176, #176, #131, .T. ) ;
#134 = PERSON_AND_ORGANIZATION ( #77, #182 ) ;
#135 = APPROVAL ( #79, 'UNSPECIFIED' ) ;
#136 = ORIENTED_EDGE ( 'NONE', *, *, #19, .T. ) ;
#137 = CLOSED_SHELL ( 'NONE', ( #127, #173, #81, #40 ) ) ;
#138 = LOCAL_TIME ( 10, 33, 48.00000000000000000, #18 ) ;
#139 = COORDINATED_UNIVERSAL_TIME_OFFSET ( 1, 0, .AHEAD. ) ;
#140 = DIRECTION ( 'NONE',  ( -4.275831445896958607E-31, -1.000000000000000000, -1.224646799147353207E-16 ) ) ;
#141 = CC_DESIGN_PERSON_AND_ORGANIZATION_ASSIGNMENT ( #80, #65, ( #145 ) ) ;
#142 = DIRECTION ( 'NONE',  ( -4.275831445896958607E-31, -1.000000000000000000, -1.224646799147353207E-16 ) ) ;
#143 = DIRECTION ( 'NONE',  ( 3.491481338843133355E-15, -1.224646799147353207E-16, 1.000000000000000000 ) ) ;
#144 = ORIENTED_EDGE ( 'NONE', *, *, #152, .T. ) ;
#145 = PRODUCT_DEFINITION_FORMATION_WITH_SPECIFIED_SOURCE ( 'ANY', '', #89, .NOT_KNOWN. ) ;
#146 = DIRECTION ( 'NONE',  ( 3.491481338843133355E-15, -1.224646799147353207E-16, 1.000000000000000000 ) ) ;
#147 =( LENGTH_UNIT ( ) NAMED_UNIT ( * ) SI_UNIT ( .MILLI., .METRE. ) );
#148 = ORIENTED_EDGE ( 'NONE', *, *, #170, .F. ) ;
#149 = EDGE_LOOP ( 'NONE', ( #159 ) ) ;
#150 = APPLICATION_PROTOCOL_DEFINITION ( 'international standard', 'config_control_design', 1994, #177 ) ;
#151 = CALENDAR_DATE ( 2021, 8, 12 ) ;
#152 = EDGE_CURVE ( 'NONE', #129, #129, #113, .T. ) ;
#153 = APPROVAL_ROLE ( '' ) ;
#154 = SECURITY_CLASSIFICATION_LEVEL ( 'unclassified' ) ;
#155 = DIRECTION ( 'NONE',  ( -3.491481338843133355E-15, 1.224646799147353207E-16, -1.000000000000000000 ) ) ;
#156 = CC_DESIGN_DATE_AND_TIME_ASSIGNMENT ( #83, #200, ( #87 ) ) ;
#157 = CARTESIAN_POINT ( 'NONE',  ( 8.728703347107833388E-14, 1.499759782661850766E-32, 25.00000000000000000 ) ) ;
#158 = PLANE ( 'NONE',  #55 ) ;
#159 = ORIENTED_EDGE ( 'NONE', *, *, #197, .T. ) ;
#160 = DIRECTION ( 'NONE',  ( -3.491481338843133355E-15, 1.224646799147353207E-16, -1.000000000000000000 ) ) ;
#161 = APPLICATION_CONTEXT ( 'configuration controlled 3d designs of mechanical parts and assemblies' ) ;
#162 = PERSON_AND_ORGANIZATION_ROLE ( 'design_owner' ) ;
#163 = CIRCLE ( 'NONE', #109, 1.600000000000001421 ) ;
#164 = DIRECTION ( 'NONE',  ( 0.0000000000000000000, 0.0000000000000000000, 1.000000000000000000 ) ) ;
#165 = DIRECTION ( 'NONE',  ( 0.0000000000000000000, 1.000000000000000000, 0.0000000000000000000 ) ) ;
#166 = CC_DESIGN_PERSON_AND_ORGANIZATION_ASSIGNMENT ( #167, #43, ( #64 ) ) ;
#167 = PERSON_AND_ORGANIZATION ( #77, #182 ) ;
#168 = PRODUCT_RELATED_PRODUCT_CATEGORY ( 'detail', '', ( #89 ) ) ;
#169 = CARTESIAN_POINT ( 'NONE',  ( -1.068953943006578988E-30, 3.749385712520242717E-32, -3.061605774930952225E-16 ) ) ;
#170 = EDGE_CURVE ( 'NONE', #122, #122, #69, .T. ) ;
#171 = AXIS2_PLACEMENT_3D ( 'NONE', #82, #191, #46 ) ;
#172 = AXIS2_PLACEMENT_3D ( 'NONE', #125, #107, #60 ) ;
#173 = ADVANCED_FACE ( 'NONE', ( #71, #57 ), #189, .T. ) ;
#174 = PERSON_AND_ORGANIZATION_ROLE ( 'creator' ) ;
#175 = CARTESIAN_POINT ( 'NONE',  ( 8.728703347107833388E-14, 1.999999999999994005, 25.00000000000000000 ) ) ;
#176 = VERTEX_POINT ( 'NONE', #190 ) ;
#177 = APPLICATION_CONTEXT ( 'configuration controlled 3d designs of mechanical parts and assemblies' ) ;
#178 = APPROVAL_STATUS ( 'not_yet_approved' ) ;
#179 = EDGE_LOOP ( 'NONE', ( #148 ) ) ;
#180 = PLANE ( 'NONE',  #123 ) ;
#181 = CARTESIAN_POINT ( 'NONE',  ( 8.728703347107833388E-14, -3.061616997868383043E-15, 25.00000000000000000 ) ) ;
#182 = ORGANIZATION ( 'UNSPECIFIED', 'UNSPECIFIED', '' ) ;
#183 = CC_DESIGN_PERSON_AND_ORGANIZATION_ASSIGNMENT ( #104, #174, ( #87 ) ) ;
#184 = DIRECTION ( 'NONE',  ( -3.491481338843133355E-15, 1.224646799147353207E-16, -1.000000000000000000 ) ) ;
#185 = MANIFOLD_SOLID_BREP ( 'Corps-Déplacer/Copier1[1]', #137 ) ;
#186 = EDGE_LOOP ( 'NONE', ( #106 ) ) ;
#187 = AXIS2_PLACEMENT_3D ( 'NONE', #121, #184, #7 ) ;
#188 = ORIENTED_EDGE ( 'NONE', *, *, #197, .F. ) ;
#189 = CYLINDRICAL_SURFACE ( 'NONE', #172, 1.999999999999999112 ) ;
#190 = CARTESIAN_POINT ( 'NONE',  ( 2.080922877950507480E-13, 1.999999999999994005, 59.60000000000000142 ) ) ;
#191 = DIRECTION ( 'NONE',  ( -3.491481338843133355E-15, 1.224646799147353207E-16, -1.000000000000000000 ) ) ;
#192 = CALENDAR_DATE ( 2021, 8, 12 ) ;
#193 = DATE_TIME_ROLE ( 'classification_date' ) ;
#194 = FACE_OUTER_BOUND ( 'NONE', #74, .T. ) ;
#195 = AXIS2_PLACEMENT_3D ( 'NONE', #25, #160, #24 ) ;
#196 = DIRECTION ( 'NONE',  ( 0.0000000000000000000, 1.000000000000000000, 0.0000000000000000000 ) ) ;
#197 = EDGE_CURVE ( 'NONE', #29, #29, #163, .T. ) ;
#198 = AXIS2_PLACEMENT_3D ( 'NONE', #119, #4, #35 ) ;
#199 = APPLICATION_PROTOCOL_DEFINITION ( 'international standard', 'config_control_design', 1994, #161 ) ;
#200 = DATE_TIME_ROLE ( 'creation_date' ) ;
#201 = PERSON_AND_ORGANIZATION ( #77, #182 ) ;
#202 =( NAMED_UNIT ( * ) PLANE_ANGLE_UNIT ( ) SI_UNIT ( $, .RADIAN. ) );
#203 = APPROVAL ( #93, 'UNSPECIFIED' ) ;
ENDSEC;
END-ISO-10303-21;
