ISO-10303-21;
HEADER;
FILE_DESCRIPTION (( 'STEP AP203' ),
    '1' );
FILE_NAME ('379718.step',
    '2021-12-08T09:33:48',
    ( '' ),
    ( '' ),
    'SwSTEP 2.0',
    'SolidWorks 2019',
    '' );
FILE_SCHEMA (( 'CONFIG_CONTROL_DESIGN' ));
ENDSEC;

DATA;
#1 = CC_DESIGN_PERSON_AND_ORGANIZATION_ASSIGNMENT ( #191, #17, ( #40 ) ) ;
#2 = AXIS2_PLACEMENT_3D ( 'NONE', #102, #52, #22 ) ;
#3 = APPROVAL_PERSON_ORGANIZATION ( #152, #101, #15 ) ;
#4 = DATE_TIME_ROLE ( 'classification_date' ) ;
#5 = DIRECTION ( 'NONE',  ( 3.491481338843133355E-15, -1.224646799147353207E-16, 1.000000000000000000 ) ) ;
#6 = PLANE ( 'NONE',  #34 ) ;
#7 = AXIS2_PLACEMENT_3D ( 'NONE', #142, #108, #195 ) ;
#8 = EDGE_LOOP ( 'NONE', ( #135 ) ) ;
#9 = AXIS2_PLACEMENT_3D ( 'NONE', #47, #173, #145 ) ;
#10 = AXIS2_PLACEMENT_3D ( 'NONE', #133, #5, #82 ) ;
#11 = CARTESIAN_POINT ( 'NONE',  ( 1.745740669421566678E-13, 1.599999999999994094, 50.00000000000000000 ) ) ;
#12 = APPROVAL_DATE_TIME ( #27, #101 ) ;
#13 =( NAMED_UNIT ( * ) SI_UNIT ( $, .STERADIAN. ) SOLID_ANGLE_UNIT ( ) );
#14 = AXIS2_PLACEMENT_3D ( 'NONE', #137, #87, #70 ) ;
#15 = APPROVAL_ROLE ( '' ) ;
#16 = VERTEX_POINT ( 'NONE', #103 ) ;
#17 = PERSON_AND_ORGANIZATION_ROLE ( 'design_supplier' ) ;
#18 = CARTESIAN_POINT ( 'NONE',  ( 0.0000000000000000000, 0.0000000000000000000, 0.0000000000000000000 ) ) ;
#19 = DIRECTION ( 'NONE',  ( -3.491481338843133355E-15, 1.224646799147353207E-16, -1.000000000000000000 ) ) ;
#20 = CLOSED_SHELL ( 'NONE', ( #134, #62, #84 ) ) ;
#21 = PRODUCT_RELATED_PRODUCT_CATEGORY ( 'detail', '', ( #57 ) ) ;
#22 = DIRECTION ( 'NONE',  ( 4.275831445896958607E-31, 1.000000000000000000, 1.224646799147353207E-16 ) ) ;
#23 = ORIENTED_EDGE ( 'NONE', *, *, #187, .F. ) ;
#24 = ORIENTED_EDGE ( 'NONE', *, *, #149, .T. ) ;
#25 =( NAMED_UNIT ( * ) PLANE_ANGLE_UNIT ( ) SI_UNIT ( $, .RADIAN. ) );
#26 = APPROVAL_PERSON_ORGANIZATION ( #28, #69, #172 ) ;
#27 = DATE_AND_TIME ( #139, #170 ) ;
#28 = PERSON_AND_ORGANIZATION ( #199, #86 ) ;
#29 = ADVANCED_FACE ( 'NONE', ( #200 ), #185, .F. ) ;
#30 = COORDINATED_UNIVERSAL_TIME_OFFSET ( 1, 0, .AHEAD. ) ;
#31 = CIRCLE ( 'NONE', #150, 1.600000000000000089 ) ;
#32 = DIRECTION ( 'NONE',  ( 4.275831445896959482E-31, 1.000000000000000000, 1.224646799147353207E-16 ) ) ;
#33 = CYLINDRICAL_SURFACE ( 'NONE', #104, 1.999999999999994449 ) ;
#34 = AXIS2_PLACEMENT_3D ( 'NONE', #64, #197, #53 ) ;
#35 = EDGE_CURVE ( 'NONE', #119, #119, #54, .T. ) ;
#36 = LOCAL_TIME ( 10, 33, 48.00000000000000000, #106 ) ;
#37 = ORIENTED_EDGE ( 'NONE', *, *, #126, .F. ) ;
#38 = EDGE_LOOP ( 'NONE', ( #56 ) ) ;
#39 = PERSON_AND_ORGANIZATION ( #199, #86 ) ;
#40 = PRODUCT_DEFINITION_FORMATION_WITH_SPECIFIED_SOURCE ( 'ANY', '', #57, .NOT_KNOWN. ) ;
#41 = CALENDAR_DATE ( 2021, 8, 12 ) ;
#42 = CC_DESIGN_PERSON_AND_ORGANIZATION_ASSIGNMENT ( #39, #203, ( #57 ) ) ;
#43 = DATE_AND_TIME ( #41, #99 ) ;
#44 = CONICAL_SURFACE ( 'NONE', #160, 1.600000000000000089, 0.7853981633974512766 ) ;
#45 = CIRCLE ( 'NONE', #165, 2.000000000000000000 ) ;
#46 = SECURITY_CLASSIFICATION_LEVEL ( 'unclassified' ) ;
#47 = CARTESIAN_POINT ( 'NONE',  ( -1.068953943006578988E-30, 3.749385712520242717E-32, -3.061605774930952225E-16 ) ) ;
#48 = CC_DESIGN_PERSON_AND_ORGANIZATION_ASSIGNMENT ( #107, #76, ( #40 ) ) ;
#49 = CC_DESIGN_APPROVAL ( #101, ( #138 ) ) ;
#50 = FACE_OUTER_BOUND ( 'NONE', #55, .T. ) ;
#51 = CC_DESIGN_PERSON_AND_ORGANIZATION_ASSIGNMENT ( #88, #125, ( #138 ) ) ;
#52 = DIRECTION ( 'NONE',  ( -3.491481338843133355E-15, 1.224646799147353207E-16, -1.000000000000000000 ) ) ;
#53 = DIRECTION ( 'NONE',  ( -4.275831445896958607E-31, -1.000000000000000000, -1.224646799147353207E-16 ) ) ;
#54 = CIRCLE ( 'NONE', #97, 1.999999999999994893 ) ;
#55 = EDGE_LOOP ( 'NONE', ( #161 ) ) ;
#56 = ORIENTED_EDGE ( 'NONE', *, *, #201, .T. ) ;
#57 = PRODUCT ( '379718', '379718', '', ( #148 ) ) ;
#58 = ORIENTED_EDGE ( 'NONE', *, *, #187, .T. ) ;
#59 = APPROVAL_PERSON_ORGANIZATION ( #175, #130, #61 ) ;
#60 = DIRECTION ( 'NONE',  ( -3.491481338843133355E-15, 1.224646799147353207E-16, -1.000000000000000000 ) ) ;
#61 = APPROVAL_ROLE ( '' ) ;
#62 = ADVANCED_FACE ( 'NONE', ( #158, #50 ), #33, .T. ) ;
#63 = DIRECTION ( 'NONE',  ( 0.0000000000000000000, 1.000000000000000000, 0.0000000000000000000 ) ) ;
#64 = CARTESIAN_POINT ( 'NONE',  ( 2.793185071074506684E-14, 1.499759782661852681E-32, 8.000000000000000000 ) ) ;
#65 = CC_DESIGN_PERSON_AND_ORGANIZATION_ASSIGNMENT ( #140, #129, ( #81 ) ) ;
#66 = EDGE_LOOP ( 'NONE', ( #58 ) ) ;
#67 = EDGE_LOOP ( 'NONE', ( #23 ) ) ;
#68 = ORIENTED_EDGE ( 'NONE', *, *, #35, .F. ) ;
#69 = APPROVAL ( #105, 'UNSPECIFIED' ) ;
#70 = DIRECTION ( 'NONE',  ( 1.000000000000000000, 0.0000000000000000000, 0.0000000000000000000 ) ) ;
#71 = ADVANCED_BREP_SHAPE_REPRESENTATION ( '379718', ( #184, #181, #14 ), #198 ) ;
#72 = CARTESIAN_POINT ( 'NONE',  ( 1.731774744066194397E-13, 1.999999999999994005, 49.60000000000000853 ) ) ;
#73 = LOCAL_TIME ( 10, 33, 48.00000000000000000, #30 ) ;
#74 = DIRECTION ( 'NONE',  ( -3.491481338843133355E-15, 1.224646799147353207E-16, -1.000000000000000000 ) ) ;
#75 = COORDINATED_UNIVERSAL_TIME_OFFSET ( 1, 0, .AHEAD. ) ;
#76 = PERSON_AND_ORGANIZATION_ROLE ( 'creator' ) ;
#77 = FACE_OUTER_BOUND ( 'NONE', #179, .T. ) ;
#78 = FACE_OUTER_BOUND ( 'NONE', #162, .T. ) ;
#79 = APPROVAL_STATUS ( 'not_yet_approved' ) ;
#80 = DIRECTION ( 'NONE',  ( -3.491481338843133355E-15, 1.224646799147353207E-16, -1.000000000000000000 ) ) ;
#81 = SECURITY_CLASSIFICATION ( '', '', #46 ) ;
#82 = DIRECTION ( 'NONE',  ( -4.275831445896958607E-31, -1.000000000000000000, -1.224646799147353207E-16 ) ) ;
#83 = PRODUCT_DEFINITION_SHAPE ( 'NONE', 'NONE',  #138 ) ;
#84 = ADVANCED_FACE ( 'NONE', ( #113 ), #95, .T. ) ;
#85 = DIRECTION ( 'NONE',  ( 0.0000000000000000000, 1.000000000000000000, 0.0000000000000000000 ) ) ;
#86 = ORGANIZATION ( 'UNSPECIFIED', 'UNSPECIFIED', '' ) ;
#87 = DIRECTION ( 'NONE',  ( 0.0000000000000000000, 0.0000000000000000000, 1.000000000000000000 ) ) ;
#88 = PERSON_AND_ORGANIZATION ( #199, #86 ) ;
#89 = APPLICATION_PROTOCOL_DEFINITION ( 'international standard', 'config_control_design', 1994, #174 ) ;
#90 = CALENDAR_DATE ( 2021, 8, 12 ) ;
#91 = DATE_AND_TIME ( #141, #36 ) ;
#92 = CYLINDRICAL_SURFACE ( 'NONE', #136, 1.999999999999997335 ) ;
#93 = FACE_OUTER_BOUND ( 'NONE', #196, .T. ) ;
#94 = APPROVAL_DATE_TIME ( #109, #130 ) ;
#95 = PLANE ( 'NONE',  #7 ) ;
#96 = DIRECTION ( 'NONE',  ( 0.0000000000000000000, 1.000000000000000000, 0.0000000000000000000 ) ) ;
#97 = AXIS2_PLACEMENT_3D ( 'NONE', #151, #74, #132 ) ;
#98 = AXIS2_PLACEMENT_3D ( 'NONE', #176, #80, #63 ) ;
#99 = LOCAL_TIME ( 10, 33, 48.00000000000000000, #190 ) ;
#100 = CC_DESIGN_APPROVAL ( #130, ( #81 ) ) ;
#101 = APPROVAL ( #166, 'UNSPECIFIED' ) ;
#102 = CARTESIAN_POINT ( 'NONE',  ( 1.745740669421566678E-13, 1.199807826129477054E-32, 50.00000000000000000 ) ) ;
#103 = CARTESIAN_POINT ( 'NONE',  ( -2.137876538271898504E-31, 1.999999999999994005, -6.123121766362532060E-17 ) ) ;
#104 = AXIS2_PLACEMENT_3D ( 'NONE', #18, #180, #32 ) ;
#105 = APPROVAL_STATUS ( 'not_yet_approved' ) ;
#106 = COORDINATED_UNIVERSAL_TIME_OFFSET ( 1, 0, .AHEAD. ) ;
#107 = PERSON_AND_ORGANIZATION ( #199, #86 ) ;
#108 = DIRECTION ( 'NONE',  ( 3.491481338843133355E-15, -1.224646799147353207E-16, 1.000000000000000000 ) ) ;
#109 = DATE_AND_TIME ( #193, #154 ) ;
#110 = CC_DESIGN_APPROVAL ( #69, ( #40 ) ) ;
#111 = CARTESIAN_POINT ( 'NONE',  ( 1.745740669421566678E-13, -6.123233995736766085E-15, 50.00000000000000000 ) ) ;
#112 = COORDINATED_UNIVERSAL_TIME_OFFSET ( 1, 0, .AHEAD. ) ;
#113 = FACE_OUTER_BOUND ( 'NONE', #118, .T. ) ;
#114 = CARTESIAN_POINT ( 'NONE',  ( 1.745740669421566678E-13, -6.123233995736766085E-15, 50.00000000000000000 ) ) ;
#115 = ORIENTED_EDGE ( 'NONE', *, *, #35, .T. ) ;
#116 = ADVANCED_FACE ( 'NONE', ( #93, #143 ), #92, .T. ) ;
#117 = CC_DESIGN_SECURITY_CLASSIFICATION ( #81, ( #40 ) ) ;
#118 = EDGE_LOOP ( 'NONE', ( #37 ) ) ;
#119 = VERTEX_POINT ( 'NONE', #147 ) ;
#120 = VERTEX_POINT ( 'NONE', #72 ) ;
#121 = ADVANCED_FACE ( 'NONE', ( #77, #131 ), #44, .T. ) ;
#122 =( LENGTH_UNIT ( ) NAMED_UNIT ( * ) SI_UNIT ( .MILLI., .METRE. ) );
#123 = CARTESIAN_POINT ( 'NONE',  ( 2.793185071074506684E-14, 1.999999999999994005, 8.000000000000000000 ) ) ;
#124 = UNCERTAINTY_MEASURE_WITH_UNIT (LENGTH_MEASURE( 1.000000000000000082E-05 ), #122, 'distance_accuracy_value', 'NONE');
#125 = PERSON_AND_ORGANIZATION_ROLE ( 'creator' ) ;
#126 = EDGE_CURVE ( 'NONE', #186, #186, #168, .T. ) ;
#127 = CIRCLE ( 'NONE', #9, 1.999999999999994005 ) ;
#128 = APPROVAL_DATE_TIME ( #157, #69 ) ;
#129 = PERSON_AND_ORGANIZATION_ROLE ( 'classification_officer' ) ;
#130 = APPROVAL ( #79, 'UNSPECIFIED' ) ;
#131 = FACE_BOUND ( 'NONE', #66, .T. ) ;
#132 = DIRECTION ( 'NONE',  ( 0.0000000000000000000, 1.000000000000000000, 0.0000000000000000000 ) ) ;
#133 = CARTESIAN_POINT ( 'NONE',  ( -5.344769715032894940E-31, 1.874692856260121358E-32, -1.530802887465476112E-16 ) ) ;
#134 = ADVANCED_FACE ( 'NONE', ( #78 ), #192, .F. ) ;
#135 = ORIENTED_EDGE ( 'NONE', *, *, #149, .F. ) ;
#136 = AXIS2_PLACEMENT_3D ( 'NONE', #155, #19, #177 ) ;
#137 = CARTESIAN_POINT ( 'NONE',  ( 0.0000000000000000000, 0.0000000000000000000, 0.0000000000000000000 ) ) ;
#138 = PRODUCT_DEFINITION ( 'UNKNOWN', '', #40, #171 ) ;
#139 = CALENDAR_DATE ( 2021, 8, 12 ) ;
#140 = PERSON_AND_ORGANIZATION ( #199, #86 ) ;
#141 = CALENDAR_DATE ( 2021, 8, 12 ) ;
#142 = CARTESIAN_POINT ( 'NONE',  ( 2.793185071074506684E-14, 1.499759782661852681E-32, 8.000000000000000000 ) ) ;
#143 = FACE_OUTER_BOUND ( 'NONE', #38, .T. ) ;
#144 = CC_DESIGN_DATE_AND_TIME_ASSIGNMENT ( #43, #167, ( #138 ) ) ;
#145 = DIRECTION ( 'NONE',  ( 4.275831445896959482E-31, 1.000000000000000000, 1.224646799147353207E-16 ) ) ;
#146 = EDGE_LOOP ( 'NONE', ( #115 ) ) ;
#147 = CARTESIAN_POINT ( 'NONE',  ( 2.793185071074506684E-14, 1.999999999999994005, 8.000000000000000000 ) ) ;
#148 = MECHANICAL_CONTEXT ( 'NONE', #174, 'mechanical' ) ;
#149 = EDGE_CURVE ( 'NONE', #16, #16, #127, .T. ) ;
#150 = AXIS2_PLACEMENT_3D ( 'NONE', #114, #153, #182 ) ;
#151 = CARTESIAN_POINT ( 'NONE',  ( 2.793185071074506684E-14, -9.797174393178825657E-16, 8.000000000000000000 ) ) ;
#152 = PERSON_AND_ORGANIZATION ( #199, #86 ) ;
#153 = DIRECTION ( 'NONE',  ( -3.491481338843133355E-15, 1.224646799147353207E-16, -1.000000000000000000 ) ) ;
#154 = LOCAL_TIME ( 10, 33, 48.00000000000000000, #112 ) ;
#155 = CARTESIAN_POINT ( 'NONE',  ( 0.0000000000000000000, 0.0000000000000000000, 0.0000000000000000000 ) ) ;
#156 = SHAPE_DEFINITION_REPRESENTATION ( #83, #71 ) ;
#157 = DATE_AND_TIME ( #90, #73 ) ;
#158 = FACE_OUTER_BOUND ( 'NONE', #8, .T. ) ;
#159 = ADVANCED_FACE ( 'NONE', ( #194 ), #6, .F. ) ;
#160 = AXIS2_PLACEMENT_3D ( 'NONE', #111, #60, #96 ) ;
#161 = ORIENTED_EDGE ( 'NONE', *, *, #126, .T. ) ;
#162 = EDGE_LOOP ( 'NONE', ( #24 ) ) ;
#163 = DIRECTION ( 'NONE',  ( -3.491481338843133355E-15, 1.224646799147353207E-16, -1.000000000000000000 ) ) ;
#164 = APPLICATION_CONTEXT ( 'configuration controlled 3d designs of mechanical parts and assemblies' ) ;
#165 = AXIS2_PLACEMENT_3D ( 'NONE', #202, #163, #85 ) ;
#166 = APPROVAL_STATUS ( 'not_yet_approved' ) ;
#167 = DATE_TIME_ROLE ( 'creation_date' ) ;
#168 = CIRCLE ( 'NONE', #98, 1.999999999999994893 ) ;
#169 = CC_DESIGN_DATE_AND_TIME_ASSIGNMENT ( #91, #4, ( #81 ) ) ;
#170 = LOCAL_TIME ( 10, 33, 48.00000000000000000, #75 ) ;
#171 = DESIGN_CONTEXT ( 'detailed design', #164, 'design' ) ;
#172 = APPROVAL_ROLE ( '' ) ;
#173 = DIRECTION ( 'NONE',  ( -3.491481338843133355E-15, 1.224646799147353207E-16, -1.000000000000000000 ) ) ;
#174 = APPLICATION_CONTEXT ( 'configuration controlled 3d designs of mechanical parts and assemblies' ) ;
#175 = PERSON_AND_ORGANIZATION ( #199, #86 ) ;
#176 = CARTESIAN_POINT ( 'NONE',  ( 2.793185071074506684E-14, -9.797174393178825657E-16, 8.000000000000000000 ) ) ;
#177 = DIRECTION ( 'NONE',  ( 4.275831445896959482E-31, 1.000000000000000000, 1.224646799147353454E-16 ) ) ;
#178 = CLOSED_SHELL ( 'NONE', ( #159, #116, #121, #29 ) ) ;
#179 = EDGE_LOOP ( 'NONE', ( #183 ) ) ;
#180 = DIRECTION ( 'NONE',  ( -3.491481338843133355E-15, 1.224646799147353207E-16, -1.000000000000000000 ) ) ;
#181 = MANIFOLD_SOLID_BREP ( 'Corps-Déplacer/Copier1[2]', #20 ) ;
#182 = DIRECTION ( 'NONE',  ( 0.0000000000000000000, 1.000000000000000000, 0.0000000000000000000 ) ) ;
#183 = ORIENTED_EDGE ( 'NONE', *, *, #201, .F. ) ;
#184 = MANIFOLD_SOLID_BREP ( 'Corps-Déplacer/Copier1[1]', #178 ) ;
#185 = PLANE ( 'NONE',  #2 ) ;
#186 = VERTEX_POINT ( 'NONE', #123 ) ;
#187 = EDGE_CURVE ( 'NONE', #189, #189, #31, .T. ) ;
#188 = APPLICATION_PROTOCOL_DEFINITION ( 'international standard', 'config_control_design', 1994, #164 ) ;
#189 = VERTEX_POINT ( 'NONE', #11 ) ;
#190 = COORDINATED_UNIVERSAL_TIME_OFFSET ( 1, 0, .AHEAD. ) ;
#191 = PERSON_AND_ORGANIZATION ( #199, #86 ) ;
#192 = PLANE ( 'NONE',  #10 ) ;
#193 = CALENDAR_DATE ( 2021, 8, 12 ) ;
#194 = FACE_OUTER_BOUND ( 'NONE', #146, .T. ) ;
#195 = DIRECTION ( 'NONE',  ( -4.275831445896958607E-31, -1.000000000000000000, -1.224646799147353207E-16 ) ) ;
#196 = EDGE_LOOP ( 'NONE', ( #68 ) ) ;
#197 = DIRECTION ( 'NONE',  ( 3.491481338843133355E-15, -1.224646799147353207E-16, 1.000000000000000000 ) ) ;
#198 =( GEOMETRIC_REPRESENTATION_CONTEXT ( 3 ) GLOBAL_UNCERTAINTY_ASSIGNED_CONTEXT ( ( #124 ) ) GLOBAL_UNIT_ASSIGNED_CONTEXT ( ( #122, #25, #13 ) ) REPRESENTATION_CONTEXT ( 'NONE', 'WORKASPACE' ) );
#199 = PERSON ( 'UNSPECIFIED', 'UNSPECIFIED', 'UNSPECIFIED', ('UNSPECIFIED'), ('UNSPECIFIED'), ('UNSPECIFIED') ) ;
#200 = FACE_OUTER_BOUND ( 'NONE', #67, .T. ) ;
#201 = EDGE_CURVE ( 'NONE', #120, #120, #45, .T. ) ;
#202 = CARTESIAN_POINT ( 'NONE',  ( 1.731774744066194397E-13, -6.074248123770872657E-15, 49.60000000000000853 ) ) ;
#203 = PERSON_AND_ORGANIZATION_ROLE ( 'design_owner' ) ;
ENDSEC;
END-ISO-10303-21;
