ISO-10303-21;
HEADER;
FILE_DESCRIPTION (( 'STEP AP203' ),
    '1' );
FILE_NAME ('379717.step',
    '2021-12-08T09:33:47',
    ( '' ),
    ( '' ),
    'SwSTEP 2.0',
    'SolidWorks 2019',
    '' );
FILE_SCHEMA (( 'CONFIG_CONTROL_DESIGN' ));
ENDSEC;

DATA;
#1 = LOCAL_TIME ( 10, 33, 47.00000000000000000, #67 ) ;
#2 = CC_DESIGN_PERSON_AND_ORGANIZATION_ASSIGNMENT ( #209, #118, ( #17 ) ) ;
#3 = SHAPE_DEFINITION_REPRESENTATION ( #24, #223 ) ;
#4 = DIRECTION ( 'NONE',  ( 3.491481338843133355E-15, -1.276467311168695266E-16, 1.000000000000000000 ) ) ;
#5 = APPROVAL_ROLE ( '' ) ;
#6 = APPROVAL_PERSON_ORGANIZATION ( #215, #47, #174 ) ;
#7 = COORDINATED_UNIVERSAL_TIME_OFFSET ( 1, 0, .AHEAD. ) ;
#8 = DIRECTION ( 'NONE',  ( -3.491481338843133355E-15, 1.224646799147353207E-16, -1.000000000000000000 ) ) ;
#9 = PLANE ( 'NONE',  #61 ) ;
#10 = DIRECTION ( 'NONE',  ( 4.275831445896959482E-31, 1.000000000000000000, 1.224646799147353454E-16 ) ) ;
#11 = MANIFOLD_SOLID_BREP ( 'Corps-Déplacer/Copier1[2]', #216 ) ;
#12 = AXIS2_PLACEMENT_3D ( 'NONE', #51, #149, #108 ) ;
#13 = ORIENTED_EDGE ( 'NONE', *, *, #66, .T. ) ;
#14 = AXIS2_PLACEMENT_3D ( 'NONE', #117, #102, #214 ) ;
#15 = ORIENTED_EDGE ( 'NONE', *, *, #204, .F. ) ;
#16 = DIRECTION ( 'NONE',  ( 0.0000000000000000000, -1.000000000000000000, 0.0000000000000000000 ) ) ;
#17 = PRODUCT_DEFINITION_FORMATION_WITH_SPECIFIED_SOURCE ( 'ANY', '', #55, .NOT_KNOWN. ) ;
#18 = FACE_OUTER_BOUND ( 'NONE', #188, .T. ) ;
#19 = FACE_OUTER_BOUND ( 'NONE', #59, .T. ) ;
#20 = PERSON_AND_ORGANIZATION_ROLE ( 'design_owner' ) ;
#21 = CIRCLE ( 'NONE', #151, 2.500000000000000000 ) ;
#22 = DIRECTION ( 'NONE',  ( 0.0000000000000000000, 1.000000000000000000, 0.0000000000000000000 ) ) ;
#23 = CARTESIAN_POINT ( 'NONE',  ( 0.0000000000000000000, 0.0000000000000000000, 0.0000000000000000000 ) ) ;
#24 = PRODUCT_DEFINITION_SHAPE ( 'NONE', 'NONE',  #179 ) ;
#25 = CIRCLE ( 'NONE', #94, 2.499999999999997780 ) ;
#26 = FACE_OUTER_BOUND ( 'NONE', #169, .T. ) ;
#27 = DIRECTION ( 'NONE',  ( -3.491481338843133355E-15, 1.224646799147353207E-16, -1.000000000000000000 ) ) ;
#28 =( LENGTH_UNIT ( ) NAMED_UNIT ( * ) SI_UNIT ( .MILLI., .METRE. ) );
#29 = EDGE_LOOP ( 'NONE', ( #13 ) ) ;
#30 = DATE_AND_TIME ( #45, #180 ) ;
#31 = ADVANCED_FACE ( 'NONE', ( #212, #18 ), #156, .T. ) ;
#32 = ORIENTED_EDGE ( 'NONE', *, *, #89, .F. ) ;
#33 = AXIS2_PLACEMENT_3D ( 'NONE', #210, #44, #119 ) ;
#34 = DIRECTION ( 'NONE',  ( 1.000000000000000000, 0.0000000000000000000, 0.0000000000000000000 ) ) ;
#35 = CC_DESIGN_PERSON_AND_ORGANIZATION_ASSIGNMENT ( #162, #82, ( #179 ) ) ;
#36 = PLANE ( 'NONE',  #133 ) ;
#37 =( NAMED_UNIT ( * ) PLANE_ANGLE_UNIT ( ) SI_UNIT ( $, .RADIAN. ) );
#38 = FACE_BOUND ( 'NONE', #115, .T. ) ;
#39 = AXIS2_PLACEMENT_3D ( 'NONE', #208, #101, #116 ) ;
#40 = CARTESIAN_POINT ( 'NONE',  ( 5.167056537879844319E-14, -2.499999999999999556, 14.79903810567664557 ) ) ;
#41 = ORIENTED_EDGE ( 'NONE', *, *, #204, .T. ) ;
#42 = ORIENTED_EDGE ( 'NONE', *, *, #130, .T. ) ;
#43 = ADVANCED_FACE ( 'NONE', ( #84, #136 ), #221, .T. ) ;
#44 = DIRECTION ( 'NONE',  ( 3.491481338843133355E-15, -1.276467311168695266E-16, 1.000000000000000000 ) ) ;
#45 = CALENDAR_DATE ( 2021, 8, 12 ) ;
#46 = DATE_TIME_ROLE ( 'creation_date' ) ;
#47 = APPROVAL ( #122, 'UNSPECIFIED' ) ;
#48 = ORGANIZATION ( 'UNSPECIFIED', 'UNSPECIFIED', '' ) ;
#49 = DIRECTION ( 'NONE',  ( 3.491481338843133355E-15, -1.224646799147353207E-16, 1.000000000000000000 ) ) ;
#50 = CC_DESIGN_PERSON_AND_ORGANIZATION_ASSIGNMENT ( #178, #20, ( #55 ) ) ;
#51 = CARTESIAN_POINT ( 'NONE',  ( 8.235034778083232541E-31, -5.355551874680488131E-32, 2.358607702257353683E-16 ) ) ;
#52 = APPROVAL_STATUS ( 'not_yet_approved' ) ;
#53 = LOCAL_TIME ( 10, 33, 47.00000000000000000, #92 ) ;
#54 = DIRECTION ( 'NONE',  ( 0.0000000000000000000, 1.000000000000000000, 0.0000000000000000000 ) ) ;
#55 = PRODUCT ( '379717', '379717', '', ( #213 ) ) ;
#56 = CARTESIAN_POINT ( 'NONE',  ( 1.745740669421566678E-13, 1.499759782661848302E-32, 50.00000000000000000 ) ) ;
#57 = CC_DESIGN_SECURITY_CLASSIFICATION ( #107, ( #17 ) ) ;
#58 = CARTESIAN_POINT ( 'NONE',  ( 4.189777606611760026E-14, -1.750000000000000222, 12.00000000000000000 ) ) ;
#59 = EDGE_LOOP ( 'NONE', ( #62 ) ) ;
#60 = PRODUCT_RELATED_PRODUCT_CATEGORY ( 'detail', '', ( #55 ) ) ;
#61 = AXIS2_PLACEMENT_3D ( 'NONE', #73, #68, #219 ) ;
#62 = ORIENTED_EDGE ( 'NONE', *, *, #130, .F. ) ;
#63 = AXIS2_PLACEMENT_3D ( 'NONE', #23, #8, #10 ) ;
#64 = PERSON_AND_ORGANIZATION_ROLE ( 'creator' ) ;
#65 = DIRECTION ( 'NONE',  ( -4.456761796588771413E-31, -1.000000000000000000, -1.276467311168695512E-16 ) ) ;
#66 = EDGE_CURVE ( 'NONE', #145, #145, #160, .T. ) ;
#67 = COORDINATED_UNIVERSAL_TIME_OFFSET ( 1, 0, .AHEAD. ) ;
#68 = DIRECTION ( 'NONE',  ( 3.491481338843133355E-15, -1.224646799147353207E-16, 1.000000000000000000 ) ) ;
#69 = CALENDAR_DATE ( 2021, 8, 12 ) ;
#70 = CC_DESIGN_DATE_AND_TIME_ASSIGNMENT ( #143, #46, ( #179 ) ) ;
#71 = AXIS2_PLACEMENT_3D ( 'NONE', #120, #140, #34 ) ;
#72 = VERTEX_POINT ( 'NONE', #40 ) ;
#73 = CARTESIAN_POINT ( 'NONE',  ( 4.189777606611760026E-14, 1.874699728327316536E-32, 12.00000000000000000 ) ) ;
#74 = CARTESIAN_POINT ( 'NONE',  ( 1.745740669421566678E-13, -6.123233995736766085E-15, 50.00000000000000000 ) ) ;
#75 = EDGE_CURVE ( 'NONE', #72, #72, #25, .T. ) ;
#76 = ORIENTED_EDGE ( 'NONE', *, *, #75, .F. ) ;
#77 = LOCAL_TIME ( 10, 33, 47.00000000000000000, #7 ) ;
#78 = MANIFOLD_SOLID_BREP ( 'Corps-Déplacer/Copier1[1]', #111 ) ;
#79 = APPROVAL_STATUS ( 'not_yet_approved' ) ;
#80 = PLANE ( 'NONE',  #190 ) ;
#81 = PERSON_AND_ORGANIZATION ( #159, #48 ) ;
#82 = PERSON_AND_ORGANIZATION_ROLE ( 'creator' ) ;
#83 = PERSON_AND_ORGANIZATION ( #159, #48 ) ;
#84 = FACE_BOUND ( 'NONE', #96, .T. ) ;
#85 = PERSON_AND_ORGANIZATION ( #159, #48 ) ;
#86 = APPROVAL_DATE_TIME ( #103, #132 ) ;
#87 = DIRECTION ( 'NONE',  ( 0.0000000000000000000, 1.000000000000000000, 0.0000000000000000000 ) ) ;
#88 = CARTESIAN_POINT ( 'NONE',  ( 4.357016340528874945E-32, -1.749999999999998890, 1.247899077121379545E-17 ) ) ;
#89 = EDGE_CURVE ( 'NONE', #198, #198, #207, .T. ) ;
#90 =( GEOMETRIC_REPRESENTATION_CONTEXT ( 3 ) GLOBAL_UNCERTAINTY_ASSIGNED_CONTEXT ( ( #131 ) ) GLOBAL_UNIT_ASSIGNED_CONTEXT ( ( #28, #37, #199 ) ) REPRESENTATION_CONTEXT ( 'NONE', 'WORKASPACE' ) );
#91 = CARTESIAN_POINT ( 'NONE',  ( 1.728283262727351074E-13, -6.062001655779398511E-15, 49.50000000000000000 ) ) ;
#92 = COORDINATED_UNIVERSAL_TIME_OFFSET ( 1, 0, .AHEAD. ) ;
#93 = FACE_OUTER_BOUND ( 'NONE', #189, .T. ) ;
#94 = AXIS2_PLACEMENT_3D ( 'NONE', #134, #121, #16 ) ;
#95 = APPROVAL_DATE_TIME ( #30, #100 ) ;
#96 = EDGE_LOOP ( 'NONE', ( #187 ) ) ;
#97 = DIRECTION ( 'NONE',  ( -4.275831445896958607E-31, -1.000000000000000000, -1.224646799147353207E-16 ) ) ;
#98 = DATE_AND_TIME ( #193, #168 ) ;
#99 = SECURITY_CLASSIFICATION_LEVEL ( 'unclassified' ) ;
#100 = APPROVAL ( #79, 'UNSPECIFIED' ) ;
#101 = DIRECTION ( 'NONE',  ( 3.491481338843133355E-15, -1.276467311168695266E-16, 1.000000000000000000 ) ) ;
#102 = DIRECTION ( 'NONE',  ( 3.491481338843133355E-15, -1.276467311168695266E-16, 1.000000000000000000 ) ) ;
#103 = DATE_AND_TIME ( #141, #1 ) ;
#104 = CIRCLE ( 'NONE', #12, 1.749999999999998890 ) ;
#105 = CARTESIAN_POINT ( 'NONE',  ( 1.745740669421566678E-13, 1.999999999999994005, 50.00000000000000000 ) ) ;
#106 = DIRECTION ( 'NONE',  ( 4.275831445896958607E-31, 1.000000000000000000, 1.224646799147353207E-16 ) ) ;
#107 = SECURITY_CLASSIFICATION ( '', '', #99 ) ;
#108 = DIRECTION ( 'NONE',  ( -4.456761796588771413E-31, -1.000000000000000000, -1.276467311168695512E-16 ) ) ;
#109 = ADVANCED_FACE ( 'NONE', ( #19 ), #80, .F. ) ;
#110 = VERTEX_POINT ( 'NONE', #105 ) ;
#111 = CLOSED_SHELL ( 'NONE', ( #220, #154, #170, #43, #144 ) ) ;
#112 = EDGE_LOOP ( 'NONE', ( #42 ) ) ;
#113 = ORIENTED_EDGE ( 'NONE', *, *, #124, .F. ) ;
#114 = CIRCLE ( 'NONE', #129, 2.000000000000000000 ) ;
#115 = EDGE_LOOP ( 'NONE', ( #192 ) ) ;
#116 = DIRECTION ( 'NONE',  ( 0.0000000000000000000, -1.000000000000000000, 0.0000000000000000000 ) ) ;
#117 = CARTESIAN_POINT ( 'NONE',  ( 4.189777606611760026E-14, -1.531760773402434319E-15, 12.00000000000000000 ) ) ;
#118 = PERSON_AND_ORGANIZATION_ROLE ( 'design_supplier' ) ;
#119 = DIRECTION ( 'NONE',  ( 0.0000000000000000000, -1.000000000000000000, 0.0000000000000000000 ) ) ;
#120 = CARTESIAN_POINT ( 'NONE',  ( 0.0000000000000000000, 0.0000000000000000000, 0.0000000000000000000 ) ) ;
#121 = DIRECTION ( 'NONE',  ( -3.491481338843133355E-15, 1.276467311168695266E-16, -1.000000000000000000 ) ) ;
#122 = APPROVAL_STATUS ( 'not_yet_approved' ) ;
#123 = CYLINDRICAL_SURFACE ( 'NONE', #63, 2.499999999999997780 ) ;
#124 = EDGE_CURVE ( 'NONE', #110, #110, #114, .T. ) ;
#125 = CC_DESIGN_APPROVAL ( #100, ( #107 ) ) ;
#126 = VERTEX_POINT ( 'NONE', #88 ) ;
#127 = DATE_TIME_ROLE ( 'classification_date' ) ;
#128 = EDGE_LOOP ( 'NONE', ( #76 ) ) ;
#129 = AXIS2_PLACEMENT_3D ( 'NONE', #163, #183, #22 ) ;
#130 = EDGE_CURVE ( 'NONE', #126, #126, #104, .T. ) ;
#131 = UNCERTAINTY_MEASURE_WITH_UNIT (LENGTH_MEASURE( 1.000000000000000082E-05 ), #28, 'distance_accuracy_value', 'NONE');
#132 = APPROVAL ( #52, 'UNSPECIFIED' ) ;
#133 = AXIS2_PLACEMENT_3D ( 'NONE', #56, #27, #106 ) ;
#134 = CARTESIAN_POINT ( 'NONE',  ( 5.167056537879844319E-14, -1.889048837863612429E-15, 14.79903810567664557 ) ) ;
#135 = EDGE_LOOP ( 'NONE', ( #32 ) ) ;
#136 = FACE_OUTER_BOUND ( 'NONE', #176, .T. ) ;
#137 = APPLICATION_CONTEXT ( 'configuration controlled 3d designs of mechanical parts and assemblies' ) ;
#138 = AXIS2_PLACEMENT_3D ( 'NONE', #177, #4, #65 ) ;
#139 = CC_DESIGN_PERSON_AND_ORGANIZATION_ASSIGNMENT ( #200, #186, ( #107 ) ) ;
#140 = DIRECTION ( 'NONE',  ( 0.0000000000000000000, 0.0000000000000000000, 1.000000000000000000 ) ) ;
#141 = CALENDAR_DATE ( 2021, 8, 12 ) ;
#142 = CARTESIAN_POINT ( 'NONE',  ( 4.189777606611760026E-14, 1.874699728327316536E-32, 12.00000000000000000 ) ) ;
#143 = DATE_AND_TIME ( #69, #77 ) ;
#144 = ADVANCED_FACE ( 'NONE', ( #182 ), #9, .F. ) ;
#145 = VERTEX_POINT ( 'NONE', #201 ) ;
#146 = APPROVAL_PERSON_ORGANIZATION ( #83, #100, #5 ) ;
#147 = CC_DESIGN_DATE_AND_TIME_ASSIGNMENT ( #167, #127, ( #107 ) ) ;
#148 = CARTESIAN_POINT ( 'NONE',  ( 1.728283262727351074E-13, 2.499999999999993783, 49.50000000000000000 ) ) ;
#149 = DIRECTION ( 'NONE',  ( 3.491481338843133355E-15, -1.276467311168695266E-16, 1.000000000000000000 ) ) ;
#150 = DIRECTION ( 'NONE',  ( -4.275831445896958607E-31, -1.000000000000000000, -1.224646799147353207E-16 ) ) ;
#151 = AXIS2_PLACEMENT_3D ( 'NONE', #91, #166, #87 ) ;
#152 = AXIS2_PLACEMENT_3D ( 'NONE', #142, #181, #150 ) ;
#153 = APPLICATION_CONTEXT ( 'configuration controlled 3d designs of mechanical parts and assemblies' ) ;
#154 = ADVANCED_FACE ( 'NONE', ( #218, #38 ), #164, .T. ) ;
#155 = CARTESIAN_POINT ( 'NONE',  ( -4.275851038235236088E-31, 1.499766654729049501E-32, -1.224652410616061270E-16 ) ) ;
#156 = CYLINDRICAL_SURFACE ( 'NONE', #138, 1.749999999999998890 ) ;
#157 = APPROVAL_ROLE ( '' ) ;
#158 = APPLICATION_PROTOCOL_DEFINITION ( 'international standard', 'config_control_design', 1994, #137 ) ;
#159 = PERSON ( 'UNSPECIFIED', 'UNSPECIFIED', 'UNSPECIFIED', ('UNSPECIFIED'), ('UNSPECIFIED'), ('UNSPECIFIED') ) ;
#160 = CIRCLE ( 'NONE', #14, 1.749999999999998668 ) ;
#161 = ADVANCED_FACE ( 'NONE', ( #185 ), #217, .T. ) ;
#162 = PERSON_AND_ORGANIZATION ( #159, #48 ) ;
#163 = CARTESIAN_POINT ( 'NONE',  ( 1.745740669421566678E-13, -6.123233995736766085E-15, 50.00000000000000000 ) ) ;
#164 = CONICAL_SURFACE ( 'NONE', #203, 2.000000000000000000, 0.7853981633974479459 ) ;
#165 = FACE_OUTER_BOUND ( 'NONE', #128, .T. ) ;
#166 = DIRECTION ( 'NONE',  ( -3.491481338843133355E-15, 1.224646799147353207E-16, -1.000000000000000000 ) ) ;
#167 = DATE_AND_TIME ( #222, #53 ) ;
#168 = LOCAL_TIME ( 10, 33, 47.00000000000000000, #197 ) ;
#169 = EDGE_LOOP ( 'NONE', ( #41 ) ) ;
#170 = ADVANCED_FACE ( 'NONE', ( #93 ), #36, .F. ) ;
#171 = APPROVAL_PERSON_ORGANIZATION ( #85, #132, #157 ) ;
#172 = DESIGN_CONTEXT ( 'detailed design', #153, 'design' ) ;
#173 = APPROVAL_DATE_TIME ( #98, #47 ) ;
#174 = APPROVAL_ROLE ( '' ) ;
#175 = COORDINATED_UNIVERSAL_TIME_OFFSET ( 1, 0, .AHEAD. ) ;
#176 = EDGE_LOOP ( 'NONE', ( #206 ) ) ;
#177 = CARTESIAN_POINT ( 'NONE',  ( -6.413839710158237013E-31, 0.0000000000000000000, -1.836996703606440502E-16 ) ) ;
#178 = PERSON_AND_ORGANIZATION ( #159, #48 ) ;
#179 = PRODUCT_DEFINITION ( 'UNKNOWN', '', #17, #172 ) ;
#180 = LOCAL_TIME ( 10, 33, 47.00000000000000000, #175 ) ;
#181 = DIRECTION ( 'NONE',  ( 3.491481338843133355E-15, -1.224646799147353207E-16, 1.000000000000000000 ) ) ;
#182 = FACE_OUTER_BOUND ( 'NONE', #135, .T. ) ;
#183 = DIRECTION ( 'NONE',  ( -3.491481338843133355E-15, 1.224646799147353207E-16, -1.000000000000000000 ) ) ;
#184 = CC_DESIGN_APPROVAL ( #132, ( #179 ) ) ;
#185 = FACE_OUTER_BOUND ( 'NONE', #29, .T. ) ;
#186 = PERSON_AND_ORGANIZATION_ROLE ( 'classification_officer' ) ;
#187 = ORIENTED_EDGE ( 'NONE', *, *, #89, .T. ) ;
#188 = EDGE_LOOP ( 'NONE', ( #194 ) ) ;
#189 = EDGE_LOOP ( 'NONE', ( #113 ) ) ;
#190 = AXIS2_PLACEMENT_3D ( 'NONE', #155, #49, #97 ) ;
#191 = CC_DESIGN_PERSON_AND_ORGANIZATION_ASSIGNMENT ( #81, #64, ( #17 ) ) ;
#192 = ORIENTED_EDGE ( 'NONE', *, *, #124, .T. ) ;
#193 = CALENDAR_DATE ( 2021, 8, 12 ) ;
#194 = ORIENTED_EDGE ( 'NONE', *, *, #66, .F. ) ;
#195 = APPLICATION_PROTOCOL_DEFINITION ( 'international standard', 'config_control_design', 1994, #153 ) ;
#196 = DIRECTION ( 'NONE',  ( -3.491481338843133355E-15, 1.224646799147353207E-16, -1.000000000000000000 ) ) ;
#197 = COORDINATED_UNIVERSAL_TIME_OFFSET ( 1, 0, .AHEAD. ) ;
#198 = VERTEX_POINT ( 'NONE', #58 ) ;
#199 =( NAMED_UNIT ( * ) SI_UNIT ( $, .STERADIAN. ) SOLID_ANGLE_UNIT ( ) );
#200 = PERSON_AND_ORGANIZATION ( #159, #48 ) ;
#201 = CARTESIAN_POINT ( 'NONE',  ( 4.189777606611760026E-14, -1.750000000000000222, 12.00000000000000000 ) ) ;
#202 = VERTEX_POINT ( 'NONE', #148 ) ;
#203 = AXIS2_PLACEMENT_3D ( 'NONE', #74, #196, #54 ) ;
#204 = EDGE_CURVE ( 'NONE', #202, #202, #21, .T. ) ;
#205 = EDGE_LOOP ( 'NONE', ( #15 ) ) ;
#206 = ORIENTED_EDGE ( 'NONE', *, *, #75, .T. ) ;
#207 = CIRCLE ( 'NONE', #39, 1.749999999999998668 ) ;
#208 = CARTESIAN_POINT ( 'NONE',  ( 4.189777606611760026E-14, -1.531760773402434319E-15, 12.00000000000000000 ) ) ;
#209 = PERSON_AND_ORGANIZATION ( #159, #48 ) ;
#210 = CARTESIAN_POINT ( 'NONE',  ( 1.070497048173232829E-13, -3.913681203143627180E-15, 30.66025403784432157 ) ) ;
#211 = CC_DESIGN_APPROVAL ( #47, ( #17 ) ) ;
#212 = FACE_OUTER_BOUND ( 'NONE', #112, .T. ) ;
#213 = MECHANICAL_CONTEXT ( 'NONE', #137, 'mechanical' ) ;
#214 = DIRECTION ( 'NONE',  ( 0.0000000000000000000, -1.000000000000000000, 0.0000000000000000000 ) ) ;
#215 = PERSON_AND_ORGANIZATION ( #159, #48 ) ;
#216 = CLOSED_SHELL ( 'NONE', ( #161, #31, #109 ) ) ;
#217 = PLANE ( 'NONE',  #152 ) ;
#218 = FACE_OUTER_BOUND ( 'NONE', #205, .T. ) ;
#219 = DIRECTION ( 'NONE',  ( -4.275831445896958607E-31, -1.000000000000000000, -1.224646799147353207E-16 ) ) ;
#220 = ADVANCED_FACE ( 'NONE', ( #26, #165 ), #123, .T. ) ;
#221 = CONICAL_SURFACE ( 'NONE', #33, 6.750000000000000000, 0.2617993877991502960 ) ;
#222 = CALENDAR_DATE ( 2021, 8, 12 ) ;
#223 = ADVANCED_BREP_SHAPE_REPRESENTATION ( '379717', ( #78, #11, #71 ), #90 ) ;
ENDSEC;
END-ISO-10303-21;
