ISO-10303-21;
HEADER;
FILE_DESCRIPTION (( 'STEP AP203' ),
    '1' );
FILE_NAME ('379713.step',
    '2021-12-08T09:33:47',
    ( '' ),
    ( '' ),
    'SwSTEP 2.0',
    'SolidWorks 2019',
    '' );
FILE_SCHEMA (( 'CONFIG_CONTROL_DESIGN' ));
ENDSEC;

DATA;
#1 = EDGE_CURVE ( 'NONE', #107, #107, #39, .T. ) ;
#2 = AXIS2_PLACEMENT_3D ( 'NONE', #25, #97, #72 ) ;
#3 =( GEOMETRIC_REPRESENTATION_CONTEXT ( 3 ) GLOBAL_UNCERTAINTY_ASSIGNED_CONTEXT ( ( #162 ) ) GLOBAL_UNIT_ASSIGNED_CONTEXT ( ( #159, #78, #143 ) ) REPRESENTATION_CONTEXT ( 'NONE', 'WORKASPACE' ) );
#4 = EDGE_LOOP ( 'NONE', ( #91 ) ) ;
#5 = CARTESIAN_POINT ( 'NONE',  ( 1.731774744066194397E-13, -6.074248123770872657E-15, 49.60000000000000853 ) ) ;
#6 = DIRECTION ( 'NONE',  ( 0.0000000000000000000, 1.000000000000000000, 0.0000000000000000000 ) ) ;
#7 = DESIGN_CONTEXT ( 'detailed design', #120, 'design' ) ;
#8 = PERSON_AND_ORGANIZATION ( #22, #151 ) ;
#9 = APPROVAL_ROLE ( '' ) ;
#10 = ADVANCED_FACE ( 'NONE', ( #174, #59 ), #155, .T. ) ;
#11 = CARTESIAN_POINT ( 'NONE',  ( 1.745740669421566678E-13, 1.199807826129478970E-32, 50.00000000000000000 ) ) ;
#12 = CLOSED_SHELL ( 'NONE', ( #38, #35, #99 ) ) ;
#13 = ADVANCED_BREP_SHAPE_REPRESENTATION ( '379713', ( #76, #216, #161 ), #3 ) ;
#14 = DIRECTION ( 'NONE',  ( -4.456761796588771413E-31, -1.000000000000000000, -1.276467311168695512E-16 ) ) ;
#15 = CLOSED_SHELL ( 'NONE', ( #10, #132, #77, #207, #153 ) ) ;
#16 = AXIS2_PLACEMENT_3D ( 'NONE', #43, #65, #170 ) ;
#17 = ORIENTED_EDGE ( 'NONE', *, *, #93, .T. ) ;
#18 = FACE_OUTER_BOUND ( 'NONE', #184, .T. ) ;
#19 = CARTESIAN_POINT ( 'NONE',  ( 1.745740669421566678E-13, -6.123233995736766085E-15, 50.00000000000000000 ) ) ;
#20 = DIRECTION ( 'NONE',  ( 0.0000000000000000000, -1.000000000000000000, 0.0000000000000000000 ) ) ;
#21 = ORIENTED_EDGE ( 'NONE', *, *, #80, .T. ) ;
#22 = PERSON ( 'UNSPECIFIED', 'UNSPECIFIED', 'UNSPECIFIED', ('UNSPECIFIED'), ('UNSPECIFIED'), ('UNSPECIFIED') ) ;
#23 = CARTESIAN_POINT ( 'NONE',  ( 4.189777606611760026E-14, -1.531760773402434319E-15, 12.00000000000000000 ) ) ;
#24 = CC_DESIGN_APPROVAL ( #114, ( #183 ) ) ;
#25 = CARTESIAN_POINT ( 'NONE',  ( -6.413839710158237013E-31, 0.0000000000000000000, -1.836996703606440502E-16 ) ) ;
#26 = DATE_TIME_ROLE ( 'creation_date' ) ;
#27 = APPROVAL_ROLE ( '' ) ;
#28 = DATE_AND_TIME ( #100, #187 ) ;
#29 = CIRCLE ( 'NONE', #16, 2.000000000000000000 ) ;
#30 = AXIS2_PLACEMENT_3D ( 'NONE', #193, #168, #109 ) ;
#31 = APPROVAL_DATE_TIME ( #28, #190 ) ;
#32 = PRODUCT_DEFINITION_SHAPE ( 'NONE', 'NONE',  #108 ) ;
#33 = CIRCLE ( 'NONE', #156, 1.600000000000002753 ) ;
#34 = APPROVAL_PERSON_ORGANIZATION ( #179, #190, #27 ) ;
#35 = ADVANCED_FACE ( 'NONE', ( #177, #45 ), #87, .T. ) ;
#36 = ORIENTED_EDGE ( 'NONE', *, *, #166, .T. ) ;
#37 = DIRECTION ( 'NONE',  ( 4.275831445896958607E-31, 1.000000000000000000, 1.224646799147353207E-16 ) ) ;
#38 = ADVANCED_FACE ( 'NONE', ( #136 ), #154, .T. ) ;
#39 = CIRCLE ( 'NONE', #137, 1.749999999999998668 ) ;
#40 = CARTESIAN_POINT ( 'NONE',  ( 4.189777606611760026E-14, -1.750000000000000222, 12.00000000000000000 ) ) ;
#41 = DIRECTION ( 'NONE',  ( 0.0000000000000000000, -1.000000000000000000, 0.0000000000000000000 ) ) ;
#42 = AXIS2_PLACEMENT_3D ( 'NONE', #19, #126, #6 ) ;
#43 = CARTESIAN_POINT ( 'NONE',  ( 4.515537250367789386E-14, -1.650856794889493952E-15, 12.93301270189221874 ) ) ;
#44 = APPLICATION_CONTEXT ( 'configuration controlled 3d designs of mechanical parts and assemblies' ) ;
#45 = FACE_OUTER_BOUND ( 'NONE', #172, .T. ) ;
#46 = PLANE ( 'NONE',  #30 ) ;
#47 = CC_DESIGN_PERSON_AND_ORGANIZATION_ASSIGNMENT ( #115, #98, ( #183 ) ) ;
#48 = LOCAL_TIME ( 10, 33, 47.00000000000000000, #116 ) ;
#49 = COORDINATED_UNIVERSAL_TIME_OFFSET ( 1, 0, .AHEAD. ) ;
#50 = PERSON_AND_ORGANIZATION ( #22, #151 ) ;
#51 = COORDINATED_UNIVERSAL_TIME_OFFSET ( 1, 0, .AHEAD. ) ;
#52 = APPROVAL_ROLE ( '' ) ;
#53 = ORIENTED_EDGE ( 'NONE', *, *, #166, .F. ) ;
#54 = EDGE_LOOP ( 'NONE', ( #149 ) ) ;
#55 = DIRECTION ( 'NONE',  ( -4.275831445896958607E-31, -1.000000000000000000, -1.224646799147353207E-16 ) ) ;
#56 = AXIS2_PLACEMENT_3D ( 'NONE', #140, #81, #144 ) ;
#57 = FACE_OUTER_BOUND ( 'NONE', #203, .T. ) ;
#58 = AXIS2_PLACEMENT_3D ( 'NONE', #11, #186, #37 ) ;
#59 = FACE_OUTER_BOUND ( 'NONE', #64, .T. ) ;
#60 = FACE_OUTER_BOUND ( 'NONE', #167, .T. ) ;
#61 = CARTESIAN_POINT ( 'NONE',  ( 1.070497048173232829E-13, -3.913681203143627180E-15, 30.66025403784432157 ) ) ;
#62 = APPLICATION_PROTOCOL_DEFINITION ( 'international standard', 'config_control_design', 1994, #44 ) ;
#63 = LOCAL_TIME ( 10, 33, 47.00000000000000000, #49 ) ;
#64 = EDGE_LOOP ( 'NONE', ( #122 ) ) ;
#65 = DIRECTION ( 'NONE',  ( -3.491481338843133355E-15, 1.276467311168695266E-16, -1.000000000000000000 ) ) ;
#66 = CC_DESIGN_APPROVAL ( #190, ( #108 ) ) ;
#67 = PERSON_AND_ORGANIZATION ( #22, #151 ) ;
#68 = DATE_AND_TIME ( #83, #181 ) ;
#69 = APPROVAL_DATE_TIME ( #220, #114 ) ;
#70 = AXIS2_PLACEMENT_3D ( 'NONE', #23, #205, #20 ) ;
#71 = EDGE_LOOP ( 'NONE', ( #21 ) ) ;
#72 = DIRECTION ( 'NONE',  ( -4.456761796588771413E-31, -1.000000000000000000, -1.276467311168695512E-16 ) ) ;
#73 = DIRECTION ( 'NONE',  ( -3.491481338843133355E-15, 1.224646799147353207E-16, -1.000000000000000000 ) ) ;
#74 = CARTESIAN_POINT ( 'NONE',  ( 1.745740669421566678E-13, -6.123233995736766085E-15, 50.00000000000000000 ) ) ;
#75 = CARTESIAN_POINT ( 'NONE',  ( 0.0000000000000000000, 0.0000000000000000000, 0.0000000000000000000 ) ) ;
#76 = MANIFOLD_SOLID_BREP ( 'Corps-Déplacer/Copier1[1]', #15 ) ;
#77 = ADVANCED_FACE ( 'NONE', ( #185 ), #152, .F. ) ;
#78 =( NAMED_UNIT ( * ) PLANE_ANGLE_UNIT ( ) SI_UNIT ( $, .RADIAN. ) );
#79 = ORIENTED_EDGE ( 'NONE', *, *, #1, .F. ) ;
#80 = EDGE_CURVE ( 'NONE', #206, #206, #178, .T. ) ;
#81 = DIRECTION ( 'NONE',  ( -3.491481338843133355E-15, 1.224646799147353207E-16, -1.000000000000000000 ) ) ;
#82 = CARTESIAN_POINT ( 'NONE',  ( 4.515537250367789386E-14, -2.000000000000001776, 12.93301270189221874 ) ) ;
#83 = CALENDAR_DATE ( 2021, 8, 12 ) ;
#84 = CALENDAR_DATE ( 2021, 8, 12 ) ;
#85 = ORIENTED_EDGE ( 'NONE', *, *, #93, .F. ) ;
#86 = CC_DESIGN_PERSON_AND_ORGANIZATION_ASSIGNMENT ( #129, #200, ( #139 ) ) ;
#87 = CYLINDRICAL_SURFACE ( 'NONE', #2, 1.749999999999998890 ) ;
#88 = VERTEX_POINT ( 'NONE', #82 ) ;
#89 = VERTEX_POINT ( 'NONE', #160 ) ;
#90 = LOCAL_TIME ( 10, 33, 47.00000000000000000, #182 ) ;
#91 = ORIENTED_EDGE ( 'NONE', *, *, #127, .T. ) ;
#92 = FACE_BOUND ( 'NONE', #169, .T. ) ;
#93 = EDGE_CURVE ( 'NONE', #106, #106, #33, .T. ) ;
#94 = DIRECTION ( 'NONE',  ( -3.491481338843133355E-15, 1.224646799147353207E-16, -1.000000000000000000 ) ) ;
#95 = AXIS2_PLACEMENT_3D ( 'NONE', #118, #133, #55 ) ;
#96 = APPROVAL_PERSON_ORGANIZATION ( #8, #142, #9 ) ;
#97 = DIRECTION ( 'NONE',  ( 3.491481338843133355E-15, -1.276467311168695266E-16, 1.000000000000000000 ) ) ;
#98 = PERSON_AND_ORGANIZATION_ROLE ( 'classification_officer' ) ;
#99 = ADVANCED_FACE ( 'NONE', ( #57 ), #188, .F. ) ;
#100 = CALENDAR_DATE ( 2021, 8, 12 ) ;
#101 = CALENDAR_DATE ( 2021, 8, 12 ) ;
#102 = PRODUCT ( '379713', '379713', '', ( #210 ) ) ;
#103 = AXIS2_PLACEMENT_3D ( 'NONE', #104, #202, #14 ) ;
#104 = CARTESIAN_POINT ( 'NONE',  ( 8.235034778083232541E-31, -5.355551874680488131E-32, 2.358607702257353683E-16 ) ) ;
#105 = PRODUCT_RELATED_PRODUCT_CATEGORY ( 'detail', '', ( #102 ) ) ;
#106 = VERTEX_POINT ( 'NONE', #171 ) ;
#107 = VERTEX_POINT ( 'NONE', #40 ) ;
#108 = PRODUCT_DEFINITION ( 'UNKNOWN', '', #139, #7 ) ;
#109 = DIRECTION ( 'NONE',  ( -4.275831445896958607E-31, -1.000000000000000000, -1.224646799147353207E-16 ) ) ;
#110 = DIRECTION ( 'NONE',  ( 0.0000000000000000000, -1.000000000000000000, 0.0000000000000000000 ) ) ;
#111 = CARTESIAN_POINT ( 'NONE',  ( 4.189777606611760026E-14, -1.750000000000000222, 12.00000000000000000 ) ) ;
#112 = SHAPE_DEFINITION_REPRESENTATION ( #32, #13 ) ;
#113 = CONICAL_SURFACE ( 'NONE', #199, 6.750000000000000000, 0.2617993877991502960 ) ;
#114 = APPROVAL ( #212, 'UNSPECIFIED' ) ;
#115 = PERSON_AND_ORGANIZATION ( #22, #151 ) ;
#116 = COORDINATED_UNIVERSAL_TIME_OFFSET ( 1, 0, .AHEAD. ) ;
#117 = AXIS2_PLACEMENT_3D ( 'NONE', #5, #94, #204 ) ;
#118 = CARTESIAN_POINT ( 'NONE',  ( 4.189777606611760026E-14, 1.499759782661853776E-32, 12.00000000000000000 ) ) ;
#119 = CC_DESIGN_PERSON_AND_ORGANIZATION_ASSIGNMENT ( #67, #128, ( #139 ) ) ;
#120 = APPLICATION_CONTEXT ( 'configuration controlled 3d designs of mechanical parts and assemblies' ) ;
#121 = EDGE_LOOP ( 'NONE', ( #36 ) ) ;
#122 = ORIENTED_EDGE ( 'NONE', *, *, #146, .F. ) ;
#123 = CC_DESIGN_APPROVAL ( #142, ( #139 ) ) ;
#124 = DIRECTION ( 'NONE',  ( 3.491481338843133355E-15, -1.276467311168695266E-16, 1.000000000000000000 ) ) ;
#125 = EDGE_LOOP ( 'NONE', ( #17 ) ) ;
#126 = DIRECTION ( 'NONE',  ( -3.491481338843133355E-15, 1.224646799147353207E-16, -1.000000000000000000 ) ) ;
#127 = EDGE_CURVE ( 'NONE', #89, #89, #214, .T. ) ;
#128 = PERSON_AND_ORGANIZATION_ROLE ( 'design_supplier' ) ;
#129 = PERSON_AND_ORGANIZATION ( #22, #151 ) ;
#130 = DATE_TIME_ROLE ( 'classification_date' ) ;
#131 = PERSON_AND_ORGANIZATION_ROLE ( 'creator' ) ;
#132 = ADVANCED_FACE ( 'NONE', ( #189, #192 ), #150, .T. ) ;
#133 = DIRECTION ( 'NONE',  ( 3.491481338843133355E-15, -1.224646799147353207E-16, 1.000000000000000000 ) ) ;
#134 = DIRECTION ( 'NONE',  ( 0.0000000000000000000, 1.000000000000000000, 0.0000000000000000000 ) ) ;
#135 = CC_DESIGN_DATE_AND_TIME_ASSIGNMENT ( #218, #130, ( #183 ) ) ;
#136 = FACE_OUTER_BOUND ( 'NONE', #121, .T. ) ;
#137 = AXIS2_PLACEMENT_3D ( 'NONE', #191, #211, #110 ) ;
#138 = DIRECTION ( 'NONE',  ( 1.000000000000000000, 0.0000000000000000000, 0.0000000000000000000 ) ) ;
#139 = PRODUCT_DEFINITION_FORMATION_WITH_SPECIFIED_SOURCE ( 'ANY', '', #102, .NOT_KNOWN. ) ;
#140 = CARTESIAN_POINT ( 'NONE',  ( 0.0000000000000000000, 0.0000000000000000000, 0.0000000000000000000 ) ) ;
#141 = CARTESIAN_POINT ( 'NONE',  ( 4.357016340528874945E-32, -1.749999999999998890, 1.247899077121379545E-17 ) ) ;
#142 = APPROVAL ( #180, 'UNSPECIFIED' ) ;
#143 =( NAMED_UNIT ( * ) SI_UNIT ( $, .STERADIAN. ) SOLID_ANGLE_UNIT ( ) );
#144 = DIRECTION ( 'NONE',  ( 4.275831445896958607E-31, 1.000000000000000000, 1.224646799147353207E-16 ) ) ;
#145 = PERSON_AND_ORGANIZATION_ROLE ( 'design_owner' ) ;
#146 = EDGE_CURVE ( 'NONE', #88, #88, #29, .T. ) ;
#147 = CALENDAR_DATE ( 2021, 8, 12 ) ;
#148 = CARTESIAN_POINT ( 'NONE',  ( -3.206893176761002567E-31, 1.124826709063587015E-32, -9.184907108292246320E-17 ) ) ;
#149 = ORIENTED_EDGE ( 'NONE', *, *, #127, .F. ) ;
#150 = CONICAL_SURFACE ( 'NONE', #42, 1.600000000000002753, 0.7853981633974512766 ) ;
#151 = ORGANIZATION ( 'UNSPECIFIED', 'UNSPECIFIED', '' ) ;
#152 = PLANE ( 'NONE',  #58 ) ;
#153 = ADVANCED_FACE ( 'NONE', ( #60 ), #46, .F. ) ;
#154 = PLANE ( 'NONE',  #95 ) ;
#155 = CYLINDRICAL_SURFACE ( 'NONE', #56, 2.000000000000000000 ) ;
#156 = AXIS2_PLACEMENT_3D ( 'NONE', #74, #73, #134 ) ;
#157 = VERTEX_POINT ( 'NONE', #111 ) ;
#158 = CC_DESIGN_PERSON_AND_ORGANIZATION_ASSIGNMENT ( #50, #131, ( #108 ) ) ;
#159 =( LENGTH_UNIT ( ) NAMED_UNIT ( * ) SI_UNIT ( .MILLI., .METRE. ) );
#160 = CARTESIAN_POINT ( 'NONE',  ( 1.731774744066194397E-13, 1.999999999999996669, 49.60000000000000853 ) ) ;
#161 = AXIS2_PLACEMENT_3D ( 'NONE', #75, #173, #138 ) ;
#162 = UNCERTAINTY_MEASURE_WITH_UNIT (LENGTH_MEASURE( 1.000000000000000082E-05 ), #159, 'distance_accuracy_value', 'NONE');
#163 = DATE_AND_TIME ( #84, #63 ) ;
#164 = APPROVAL_DATE_TIME ( #68, #142 ) ;
#165 = EDGE_LOOP ( 'NONE', ( #85 ) ) ;
#166 = EDGE_CURVE ( 'NONE', #157, #157, #195, .T. ) ;
#167 = EDGE_LOOP ( 'NONE', ( #79 ) ) ;
#168 = DIRECTION ( 'NONE',  ( 3.491481338843133355E-15, -1.224646799147353207E-16, 1.000000000000000000 ) ) ;
#169 = EDGE_LOOP ( 'NONE', ( #201 ) ) ;
#170 = DIRECTION ( 'NONE',  ( 0.0000000000000000000, -1.000000000000000000, 0.0000000000000000000 ) ) ;
#171 = CARTESIAN_POINT ( 'NONE',  ( 1.745740669421566678E-13, 1.599999999999996536, 50.00000000000000000 ) ) ;
#172 = EDGE_LOOP ( 'NONE', ( #53 ) ) ;
#173 = DIRECTION ( 'NONE',  ( 0.0000000000000000000, 0.0000000000000000000, 1.000000000000000000 ) ) ;
#174 = FACE_OUTER_BOUND ( 'NONE', #4, .T. ) ;
#175 = DIRECTION ( 'NONE',  ( -4.275831445896958607E-31, -1.000000000000000000, -1.224646799147353207E-16 ) ) ;
#176 = CC_DESIGN_DATE_AND_TIME_ASSIGNMENT ( #163, #26, ( #108 ) ) ;
#177 = FACE_OUTER_BOUND ( 'NONE', #71, .T. ) ;
#178 = CIRCLE ( 'NONE', #103, 1.749999999999998890 ) ;
#179 = PERSON_AND_ORGANIZATION ( #22, #151 ) ;
#180 = APPROVAL_STATUS ( 'not_yet_approved' ) ;
#181 = LOCAL_TIME ( 10, 33, 47.00000000000000000, #51 ) ;
#182 = COORDINATED_UNIVERSAL_TIME_OFFSET ( 1, 0, .AHEAD. ) ;
#183 = SECURITY_CLASSIFICATION ( '', '', #197 ) ;
#184 = EDGE_LOOP ( 'NONE', ( #208 ) ) ;
#185 = FACE_OUTER_BOUND ( 'NONE', #165, .T. ) ;
#186 = DIRECTION ( 'NONE',  ( -3.491481338843133355E-15, 1.224646799147353207E-16, -1.000000000000000000 ) ) ;
#187 = LOCAL_TIME ( 10, 33, 47.00000000000000000, #194 ) ;
#188 = PLANE ( 'NONE',  #209 ) ;
#189 = FACE_OUTER_BOUND ( 'NONE', #54, .T. ) ;
#190 = APPROVAL ( #196, 'UNSPECIFIED' ) ;
#191 = CARTESIAN_POINT ( 'NONE',  ( 4.189777606611760026E-14, -1.531760773402434319E-15, 12.00000000000000000 ) ) ;
#192 = FACE_BOUND ( 'NONE', #125, .T. ) ;
#193 = CARTESIAN_POINT ( 'NONE',  ( 4.189777606611760026E-14, 1.499759782661853776E-32, 12.00000000000000000 ) ) ;
#194 = COORDINATED_UNIVERSAL_TIME_OFFSET ( 1, 0, .AHEAD. ) ;
#195 = CIRCLE ( 'NONE', #70, 1.749999999999998668 ) ;
#196 = APPROVAL_STATUS ( 'not_yet_approved' ) ;
#197 = SECURITY_CLASSIFICATION_LEVEL ( 'unclassified' ) ;
#198 = PERSON_AND_ORGANIZATION ( #22, #151 ) ;
#199 = AXIS2_PLACEMENT_3D ( 'NONE', #61, #124, #41 ) ;
#200 = PERSON_AND_ORGANIZATION_ROLE ( 'creator' ) ;
#201 = ORIENTED_EDGE ( 'NONE', *, *, #1, .T. ) ;
#202 = DIRECTION ( 'NONE',  ( 3.491481338843133355E-15, -1.276467311168695266E-16, 1.000000000000000000 ) ) ;
#203 = EDGE_LOOP ( 'NONE', ( #223 ) ) ;
#204 = DIRECTION ( 'NONE',  ( 0.0000000000000000000, 1.000000000000000000, 0.0000000000000000000 ) ) ;
#205 = DIRECTION ( 'NONE',  ( 3.491481338843133355E-15, -1.276467311168695266E-16, 1.000000000000000000 ) ) ;
#206 = VERTEX_POINT ( 'NONE', #141 ) ;
#207 = ADVANCED_FACE ( 'NONE', ( #92, #18 ), #113, .T. ) ;
#208 = ORIENTED_EDGE ( 'NONE', *, *, #146, .T. ) ;
#209 = AXIS2_PLACEMENT_3D ( 'NONE', #148, #222, #175 ) ;
#210 = MECHANICAL_CONTEXT ( 'NONE', #44, 'mechanical' ) ;
#211 = DIRECTION ( 'NONE',  ( 3.491481338843133355E-15, -1.276467311168695266E-16, 1.000000000000000000 ) ) ;
#212 = APPROVAL_STATUS ( 'not_yet_approved' ) ;
#213 = APPLICATION_PROTOCOL_DEFINITION ( 'international standard', 'config_control_design', 1994, #120 ) ;
#214 = CIRCLE ( 'NONE', #117, 2.000000000000002665 ) ;
#215 = CC_DESIGN_SECURITY_CLASSIFICATION ( #183, ( #139 ) ) ;
#216 = MANIFOLD_SOLID_BREP ( 'Corps-Déplacer/Copier1[2]', #12 ) ;
#217 = PERSON_AND_ORGANIZATION ( #22, #151 ) ;
#218 = DATE_AND_TIME ( #101, #48 ) ;
#219 = CC_DESIGN_PERSON_AND_ORGANIZATION_ASSIGNMENT ( #217, #145, ( #102 ) ) ;
#220 = DATE_AND_TIME ( #147, #90 ) ;
#221 = APPROVAL_PERSON_ORGANIZATION ( #198, #114, #52 ) ;
#222 = DIRECTION ( 'NONE',  ( 3.491481338843133355E-15, -1.224646799147353207E-16, 1.000000000000000000 ) ) ;
#223 = ORIENTED_EDGE ( 'NONE', *, *, #80, .F. ) ;
ENDSEC;
END-ISO-10303-21;
