ISO-10303-21;
HEADER;
FILE_DESCRIPTION (( 'STEP AP203' ),
    '1' );
FILE_NAME ('379712.step',
    '2021-12-08T09:33:46',
    ( '' ),
    ( '' ),
    'SwSTEP 2.0',
    'SolidWorks 2019',
    '' );
FILE_SCHEMA (( 'CONFIG_CONTROL_DESIGN' ));
ENDSEC;

DATA;
#1 = EDGE_CURVE ( 'NONE', #13, #13, #175, .T. ) ;
#2 = CIRCLE ( 'NONE', #46, 1.499999999999996669 ) ;
#3 = CARTESIAN_POINT ( 'NONE',  ( 1.047444401652940007E-13, 8.998558695971082698E-33, 30.00000000000000000 ) ) ;
#4 = EDGE_LOOP ( 'NONE', ( #172 ) ) ;
#5 = CYLINDRICAL_SURFACE ( 'NONE', #10, 1.499999999999996225 ) ;
#6 = DIRECTION ( 'NONE',  ( -3.491481338843133355E-15, 1.224646799147353207E-16, -1.000000000000000000 ) ) ;
#7 = PERSON ( 'UNSPECIFIED', 'UNSPECIFIED', 'UNSPECIFIED', ('UNSPECIFIED'), ('UNSPECIFIED'), ('UNSPECIFIED') ) ;
#8 = EDGE_LOOP ( 'NONE', ( #167 ) ) ;
#9 = ADVANCED_FACE ( 'NONE', ( #25 ), #68, .F. ) ;
#10 = AXIS2_PLACEMENT_3D ( 'NONE', #37, #64, #69 ) ;
#11 = DIRECTION ( 'NONE',  ( 0.0000000000000000000, 1.000000000000000000, 0.0000000000000000000 ) ) ;
#12 = CARTESIAN_POINT ( 'NONE',  ( 3.491481338843133355E-14, -1.224646799147353256E-15, 10.00000000000000000 ) ) ;
#13 = VERTEX_POINT ( 'NONE', #156 ) ;
#14 = APPLICATION_PROTOCOL_DEFINITION ( 'international standard', 'config_control_design', 1994, #15 ) ;
#15 = APPLICATION_CONTEXT ( 'configuration controlled 3d designs of mechanical parts and assemblies' ) ;
#16 =( LENGTH_UNIT ( ) NAMED_UNIT ( * ) SI_UNIT ( .MILLI., .METRE. ) );
#17 = LOCAL_TIME ( 10, 33, 46.00000000000000000, #47 ) ;
#18 = CALENDAR_DATE ( 2021, 8, 12 ) ;
#19 = APPROVAL_PERSON_ORGANIZATION ( #125, #131, #107 ) ;
#20 = EDGE_CURVE ( 'NONE', #128, #128, #2, .T. ) ;
#21 = DATE_AND_TIME ( #113, #186 ) ;
#22 = EDGE_LOOP ( 'NONE', ( #139 ) ) ;
#23 = PRODUCT_DEFINITION_FORMATION_WITH_SPECIFIED_SOURCE ( 'ANY', '', #57, .NOT_KNOWN. ) ;
#24 = ORIENTED_EDGE ( 'NONE', *, *, #32, .T. ) ;
#25 = FACE_OUTER_BOUND ( 'NONE', #8, .T. ) ;
#26 = DIRECTION ( 'NONE',  ( -4.275831445896958607E-31, -1.000000000000000000, -1.224646799147353207E-16 ) ) ;
#27 = DIRECTION ( 'NONE',  ( 1.000000000000000000, 0.0000000000000000000, 0.0000000000000000000 ) ) ;
#28 = VERTEX_POINT ( 'NONE', #178 ) ;
#29 = ADVANCED_BREP_SHAPE_REPRESENTATION ( '379712', ( #87, #84, #150 ), #171 ) ;
#30 = DIRECTION ( 'NONE',  ( 4.275831445896959482E-31, 1.000000000000000000, 1.224646799147353207E-16 ) ) ;
#31 = CARTESIAN_POINT ( 'NONE',  ( 1.036969957636410543E-13, -3.637200993467639107E-15, 29.69999999999999929 ) ) ;
#32 = EDGE_CURVE ( 'NONE', #147, #147, #60, .T. ) ;
#33 = ADVANCED_FACE ( 'NONE', ( #121 ), #184, .F. ) ;
#34 = APPROVAL_ROLE ( '' ) ;
#35 = PERSON_AND_ORGANIZATION ( #7, #170 ) ;
#36 = FACE_OUTER_BOUND ( 'NONE', #115, .T. ) ;
#37 = CARTESIAN_POINT ( 'NONE',  ( 0.0000000000000000000, 0.0000000000000000000, 0.0000000000000000000 ) ) ;
#38 = AXIS2_PLACEMENT_3D ( 'NONE', #95, #166, #198 ) ;
#39 = EDGE_LOOP ( 'NONE', ( #135 ) ) ;
#40 = ORIENTED_EDGE ( 'NONE', *, *, #20, .F. ) ;
#41 = CC_DESIGN_PERSON_AND_ORGANIZATION_ASSIGNMENT ( #130, #61, ( #164 ) ) ;
#42 = CARTESIAN_POINT ( 'NONE',  ( 0.0000000000000000000, 0.0000000000000000000, 0.0000000000000000000 ) ) ;
#43 = APPROVAL_DATE_TIME ( #93, #116 ) ;
#44 = AXIS2_PLACEMENT_3D ( 'NONE', #99, #6, #169 ) ;
#45 = APPROVAL_DATE_TIME ( #195, #131 ) ;
#46 = AXIS2_PLACEMENT_3D ( 'NONE', #118, #54, #76 ) ;
#47 = COORDINATED_UNIVERSAL_TIME_OFFSET ( 1, 0, .AHEAD. ) ;
#48 = CARTESIAN_POINT ( 'NONE',  ( 3.491481338843133355E-14, 1.124819836996388827E-32, 10.00000000000000000 ) ) ;
#49 = CARTESIAN_POINT ( 'NONE',  ( -5.344705045315587494E-31, 1.874670173176748737E-32, -1.530784365322284982E-16 ) ) ;
#50 = APPROVAL_DATE_TIME ( #168, #144 ) ;
#51 = DIRECTION ( 'NONE',  ( -3.491481338843133355E-15, 1.224646799147353207E-16, -1.000000000000000000 ) ) ;
#52 = LOCAL_TIME ( 10, 33, 46.00000000000000000, #89 ) ;
#53 = ORIENTED_EDGE ( 'NONE', *, *, #32, .F. ) ;
#54 = DIRECTION ( 'NONE',  ( -3.491481338843133355E-15, 1.224646799147353207E-16, -1.000000000000000000 ) ) ;
#55 =( NAMED_UNIT ( * ) PLANE_ANGLE_UNIT ( ) SI_UNIT ( $, .RADIAN. ) );
#56 = DIRECTION ( 'NONE',  ( 0.0000000000000000000, 1.000000000000000000, 0.0000000000000000000 ) ) ;
#57 = PRODUCT ( '379712', '379712', '', ( #96 ) ) ;
#58 = DIRECTION ( 'NONE',  ( 0.0000000000000000000, 1.000000000000000000, 0.0000000000000000000 ) ) ;
#59 = COORDINATED_UNIVERSAL_TIME_OFFSET ( 1, 0, .AHEAD. ) ;
#60 = CIRCLE ( 'NONE', #158, 1.499999999999995559 ) ;
#61 = PERSON_AND_ORGANIZATION_ROLE ( 'classification_officer' ) ;
#62 = CC_DESIGN_PERSON_AND_ORGANIZATION_ASSIGNMENT ( #123, #160, ( #57 ) ) ;
#63 = EDGE_LOOP ( 'NONE', ( #53 ) ) ;
#64 = DIRECTION ( 'NONE',  ( -3.491481338843133355E-15, 1.224646799147353207E-16, -1.000000000000000000 ) ) ;
#65 = CC_DESIGN_DATE_AND_TIME_ASSIGNMENT ( #21, #196, ( #164 ) ) ;
#66 = APPROVAL_PERSON_ORGANIZATION ( #86, #116, #71 ) ;
#67 = APPLICATION_CONTEXT ( 'configuration controlled 3d designs of mechanical parts and assemblies' ) ;
#68 = PLANE ( 'NONE',  #193 ) ;
#69 = DIRECTION ( 'NONE',  ( 4.275831445896958607E-31, 1.000000000000000000, 1.224646799147353207E-16 ) ) ;
#70 = APPROVAL_STATUS ( 'not_yet_approved' ) ;
#71 = APPROVAL_ROLE ( '' ) ;
#72 = AXIS2_PLACEMENT_3D ( 'NONE', #31, #124, #56 ) ;
#73 = ADVANCED_FACE ( 'NONE', ( #182, #83 ), #5, .T. ) ;
#74 = ADVANCED_FACE ( 'NONE', ( #197 ), #152, .F. ) ;
#75 = ORIENTED_EDGE ( 'NONE', *, *, #151, .F. ) ;
#76 = DIRECTION ( 'NONE',  ( 0.0000000000000000000, 1.000000000000000000, 0.0000000000000000000 ) ) ;
#77 = ADVANCED_FACE ( 'NONE', ( #36 ), #97, .T. ) ;
#78 = DIRECTION ( 'NONE',  ( 4.275831445896958607E-31, 1.000000000000000000, 1.224646799147353207E-16 ) ) ;
#79 = CARTESIAN_POINT ( 'NONE',  ( 0.0000000000000000000, 0.0000000000000000000, 0.0000000000000000000 ) ) ;
#80 = PERSON_AND_ORGANIZATION ( #7, #170 ) ;
#81 = EDGE_LOOP ( 'NONE', ( #120 ) ) ;
#82 = APPLICATION_PROTOCOL_DEFINITION ( 'international standard', 'config_control_design', 1994, #67 ) ;
#83 = FACE_OUTER_BOUND ( 'NONE', #39, .T. ) ;
#84 = MANIFOLD_SOLID_BREP ( 'Corps-Déplacer/Copier1[2]', #109 ) ;
#85 = CYLINDRICAL_SURFACE ( 'NONE', #176, 1.499999999999997780 ) ;
#86 = PERSON_AND_ORGANIZATION ( #7, #170 ) ;
#87 = MANIFOLD_SOLID_BREP ( 'Corps-Déplacer/Copier1[1]', #142 ) ;
#88 = VERTEX_POINT ( 'NONE', #92 ) ;
#89 = COORDINATED_UNIVERSAL_TIME_OFFSET ( 1, 0, .AHEAD. ) ;
#90 = CONICAL_SURFACE ( 'NONE', #117, 1.199999999999999067, 0.7853981633974511656 ) ;
#91 = FACE_BOUND ( 'NONE', #102, .T. ) ;
#92 = CARTESIAN_POINT ( 'NONE',  ( 3.491481338843133355E-14, 1.499999999999995559, 10.00000000000000000 ) ) ;
#93 = DATE_AND_TIME ( #148, #52 ) ;
#94 = CC_DESIGN_DATE_AND_TIME_ASSIGNMENT ( #173, #143, ( #134 ) ) ;
#95 = CARTESIAN_POINT ( 'NONE',  ( 3.491481338843133355E-14, 1.124819836996388827E-32, 10.00000000000000000 ) ) ;
#96 = MECHANICAL_CONTEXT ( 'NONE', #67, 'mechanical' ) ;
#97 = PLANE ( 'NONE',  #38 ) ;
#98 = PRODUCT_RELATED_PRODUCT_CATEGORY ( 'detail', '', ( #57 ) ) ;
#99 = CARTESIAN_POINT ( 'NONE',  ( 1.047444401652940007E-13, -3.673940397442059178E-15, 30.00000000000000000 ) ) ;
#100 = CALENDAR_DATE ( 2021, 8, 12 ) ;
#101 = EDGE_LOOP ( 'NONE', ( #24 ) ) ;
#102 = EDGE_LOOP ( 'NONE', ( #137 ) ) ;
#103 = LOCAL_TIME ( 10, 33, 46.00000000000000000, #59 ) ;
#104 = CC_DESIGN_PERSON_AND_ORGANIZATION_ASSIGNMENT ( #161, #162, ( #23 ) ) ;
#105 = APPROVAL_STATUS ( 'not_yet_approved' ) ;
#106 = FACE_OUTER_BOUND ( 'NONE', #154, .T. ) ;
#107 = APPROVAL_ROLE ( '' ) ;
#108 = CC_DESIGN_APPROVAL ( #116, ( #134 ) ) ;
#109 = CLOSED_SHELL ( 'NONE', ( #33, #73, #77 ) ) ;
#110 = CIRCLE ( 'NONE', #122, 1.499999999999996669 ) ;
#111 = EDGE_CURVE ( 'NONE', #28, #28, #201, .T. ) ;
#112 = SECURITY_CLASSIFICATION_LEVEL ( 'unclassified' ) ;
#113 = CALENDAR_DATE ( 2021, 8, 12 ) ;
#114 = DIRECTION ( 'NONE',  ( 3.491481338843133355E-15, -1.224646799147353207E-16, 1.000000000000000000 ) ) ;
#115 = EDGE_LOOP ( 'NONE', ( #75 ) ) ;
#116 = APPROVAL ( #105, 'UNSPECIFIED' ) ;
#117 = AXIS2_PLACEMENT_3D ( 'NONE', #174, #159, #58 ) ;
#118 = CARTESIAN_POINT ( 'NONE',  ( 3.491481338843133355E-14, -1.224646799147353256E-15, 10.00000000000000000 ) ) ;
#119 = APPROVAL_STATUS ( 'not_yet_approved' ) ;
#120 = ORIENTED_EDGE ( 'NONE', *, *, #111, .F. ) ;
#121 = FACE_OUTER_BOUND ( 'NONE', #101, .T. ) ;
#122 = AXIS2_PLACEMENT_3D ( 'NONE', #12, #146, #11 ) ;
#123 = PERSON_AND_ORGANIZATION ( #7, #170 ) ;
#124 = DIRECTION ( 'NONE',  ( -3.491481338843133355E-15, 1.224646799147353207E-16, -1.000000000000000000 ) ) ;
#125 = PERSON_AND_ORGANIZATION ( #7, #170 ) ;
#126 = FACE_OUTER_BOUND ( 'NONE', #4, .T. ) ;
#127 = CC_DESIGN_APPROVAL ( #131, ( #23 ) ) ;
#128 = VERTEX_POINT ( 'NONE', #191 ) ;
#129 = AXIS2_PLACEMENT_3D ( 'NONE', #48, #114, #181 ) ;
#130 = PERSON_AND_ORGANIZATION ( #7, #170 ) ;
#131 = APPROVAL ( #70, 'UNSPECIFIED' ) ;
#132 = CC_DESIGN_SECURITY_CLASSIFICATION ( #164, ( #23 ) ) ;
#133 = DIRECTION ( 'NONE',  ( 3.491481338843133355E-15, -1.224646799147353207E-16, 1.000000000000000000 ) ) ;
#134 = PRODUCT_DEFINITION ( 'UNKNOWN', '', #23, #157 ) ;
#135 = ORIENTED_EDGE ( 'NONE', *, *, #151, .T. ) ;
#136 = APPROVAL_PERSON_ORGANIZATION ( #80, #144, #34 ) ;
#137 = ORIENTED_EDGE ( 'NONE', *, *, #1, .T. ) ;
#138 = DIRECTION ( 'NONE',  ( 0.0000000000000000000, 0.0000000000000000000, 1.000000000000000000 ) ) ;
#139 = ORIENTED_EDGE ( 'NONE', *, *, #20, .T. ) ;
#140 = UNCERTAINTY_MEASURE_WITH_UNIT (LENGTH_MEASURE( 1.000000000000000082E-05 ), #16, 'distance_accuracy_value', 'NONE');
#141 = PERSON_AND_ORGANIZATION ( #7, #170 ) ;
#142 = CLOSED_SHELL ( 'NONE', ( #74, #185, #189, #9 ) ) ;
#143 = DATE_TIME_ROLE ( 'creation_date' ) ;
#144 = APPROVAL ( #119, 'UNSPECIFIED' ) ;
#145 = CALENDAR_DATE ( 2021, 8, 12 ) ;
#146 = DIRECTION ( 'NONE',  ( -3.491481338843133355E-15, 1.224646799147353207E-16, -1.000000000000000000 ) ) ;
#147 = VERTEX_POINT ( 'NONE', #202 ) ;
#148 = CALENDAR_DATE ( 2021, 8, 12 ) ;
#149 = PERSON_AND_ORGANIZATION_ROLE ( 'design_supplier' ) ;
#150 = AXIS2_PLACEMENT_3D ( 'NONE', #79, #138, #27 ) ;
#151 = EDGE_CURVE ( 'NONE', #88, #88, #110, .T. ) ;
#152 = PLANE ( 'NONE',  #129 ) ;
#153 = CARTESIAN_POINT ( 'NONE',  ( -2.672352522657793747E-31, 9.373350865883743684E-33, -7.653921826611424909E-17 ) ) ;
#154 = EDGE_LOOP ( 'NONE', ( #40 ) ) ;
#155 = CC_DESIGN_PERSON_AND_ORGANIZATION_ASSIGNMENT ( #35, #149, ( #23 ) ) ;
#156 = CARTESIAN_POINT ( 'NONE',  ( 1.047444401652940007E-13, 1.199999999999995293, 30.00000000000000000 ) ) ;
#157 = DESIGN_CONTEXT ( 'detailed design', #15, 'design' ) ;
#158 = AXIS2_PLACEMENT_3D ( 'NONE', #49, #199, #78 ) ;
#159 = DIRECTION ( 'NONE',  ( -3.491481338843133355E-15, 1.224646799147353207E-16, -1.000000000000000000 ) ) ;
#160 = PERSON_AND_ORGANIZATION_ROLE ( 'design_owner' ) ;
#161 = PERSON_AND_ORGANIZATION ( #7, #170 ) ;
#162 = PERSON_AND_ORGANIZATION_ROLE ( 'creator' ) ;
#163 = CC_DESIGN_PERSON_AND_ORGANIZATION_ASSIGNMENT ( #141, #203, ( #134 ) ) ;
#164 = SECURITY_CLASSIFICATION ( '', '', #112 ) ;
#165 = COORDINATED_UNIVERSAL_TIME_OFFSET ( 1, 0, .AHEAD. ) ;
#166 = DIRECTION ( 'NONE',  ( 3.491481338843133355E-15, -1.224646799147353207E-16, 1.000000000000000000 ) ) ;
#167 = ORIENTED_EDGE ( 'NONE', *, *, #1, .F. ) ;
#168 = DATE_AND_TIME ( #100, #17 ) ;
#169 = DIRECTION ( 'NONE',  ( 0.0000000000000000000, 1.000000000000000000, 0.0000000000000000000 ) ) ;
#170 = ORGANIZATION ( 'UNSPECIFIED', 'UNSPECIFIED', '' ) ;
#171 =( GEOMETRIC_REPRESENTATION_CONTEXT ( 3 ) GLOBAL_UNCERTAINTY_ASSIGNED_CONTEXT ( ( #140 ) ) GLOBAL_UNIT_ASSIGNED_CONTEXT ( ( #16, #55, #192 ) ) REPRESENTATION_CONTEXT ( 'NONE', 'WORKASPACE' ) );
#172 = ORIENTED_EDGE ( 'NONE', *, *, #111, .T. ) ;
#173 = DATE_AND_TIME ( #145, #103 ) ;
#174 = CARTESIAN_POINT ( 'NONE',  ( 1.047444401652940007E-13, -3.673940397442059178E-15, 30.00000000000000000 ) ) ;
#175 = CIRCLE ( 'NONE', #44, 1.199999999999999067 ) ;
#176 = AXIS2_PLACEMENT_3D ( 'NONE', #42, #177, #30 ) ;
#177 = DIRECTION ( 'NONE',  ( -3.491481338843133355E-15, 1.224646799147353207E-16, -1.000000000000000000 ) ) ;
#178 = CARTESIAN_POINT ( 'NONE',  ( 1.036969957636410543E-13, 1.499999999999995337, 29.69999999999999929 ) ) ;
#179 = CC_DESIGN_APPROVAL ( #144, ( #164 ) ) ;
#180 = SHAPE_DEFINITION_REPRESENTATION ( #190, #29 ) ;
#181 = DIRECTION ( 'NONE',  ( -4.275831445896958607E-31, -1.000000000000000000, -1.224646799147353207E-16 ) ) ;
#182 = FACE_OUTER_BOUND ( 'NONE', #63, .T. ) ;
#183 = AXIS2_PLACEMENT_3D ( 'NONE', #153, #133, #26 ) ;
#184 = PLANE ( 'NONE',  #183 ) ;
#185 = ADVANCED_FACE ( 'NONE', ( #106, #126 ), #85, .T. ) ;
#186 = LOCAL_TIME ( 10, 33, 46.00000000000000000, #194 ) ;
#187 = FACE_OUTER_BOUND ( 'NONE', #81, .T. ) ;
#188 = LOCAL_TIME ( 10, 33, 46.00000000000000000, #165 ) ;
#189 = ADVANCED_FACE ( 'NONE', ( #187, #91 ), #90, .T. ) ;
#190 = PRODUCT_DEFINITION_SHAPE ( 'NONE', 'NONE',  #134 ) ;
#191 = CARTESIAN_POINT ( 'NONE',  ( 3.491481338843133355E-14, 1.499999999999995559, 10.00000000000000000 ) ) ;
#192 =( NAMED_UNIT ( * ) SI_UNIT ( $, .STERADIAN. ) SOLID_ANGLE_UNIT ( ) );
#193 = AXIS2_PLACEMENT_3D ( 'NONE', #3, #51, #200 ) ;
#194 = COORDINATED_UNIVERSAL_TIME_OFFSET ( 1, 0, .AHEAD. ) ;
#195 = DATE_AND_TIME ( #18, #188 ) ;
#196 = DATE_TIME_ROLE ( 'classification_date' ) ;
#197 = FACE_OUTER_BOUND ( 'NONE', #22, .T. ) ;
#198 = DIRECTION ( 'NONE',  ( -4.275831445896958607E-31, -1.000000000000000000, -1.224646799147353207E-16 ) ) ;
#199 = DIRECTION ( 'NONE',  ( -3.491481338843133355E-15, 1.224646799147353207E-16, -1.000000000000000000 ) ) ;
#200 = DIRECTION ( 'NONE',  ( 4.275831445896958607E-31, 1.000000000000000000, 1.224646799147353207E-16 ) ) ;
#201 = CIRCLE ( 'NONE', #72, 1.499999999999998890 ) ;
#202 = CARTESIAN_POINT ( 'NONE',  ( 1.069042123529831148E-31, 1.499999999999995559, 3.061858333987393440E-17 ) ) ;
#203 = PERSON_AND_ORGANIZATION_ROLE ( 'creator' ) ;
ENDSEC;
END-ISO-10303-21;
