ISO-10303-21;
HEADER;
FILE_DESCRIPTION (( 'STEP AP203' ),
    '1' );
FILE_NAME ('379711.step',
    '2021-12-08T09:33:45',
    ( '' ),
    ( '' ),
    'SwSTEP 2.0',
    'SolidWorks 2019',
    '' );
FILE_SCHEMA (( 'CONFIG_CONTROL_DESIGN' ));
ENDSEC;

DATA;
#1 = APPROVAL ( #152, 'UNSPECIFIED' ) ;
#2 = AXIS2_PLACEMENT_3D ( 'NONE', #196, #35, #5 ) ;
#3 = FACE_OUTER_BOUND ( 'NONE', #172, .T. ) ;
#4 = DIRECTION ( 'NONE',  ( 0.0000000000000000000, 1.000000000000000000, 0.0000000000000000000 ) ) ;
#5 = DIRECTION ( 'NONE',  ( 0.0000000000000000000, 1.000000000000000000, 0.0000000000000000000 ) ) ;
#6 = VERTEX_POINT ( 'NONE', #144 ) ;
#7 = DIRECTION ( 'NONE',  ( -4.275831445896958607E-31, -1.000000000000000000, -1.224646799147353207E-16 ) ) ;
#8 = ADVANCED_FACE ( 'NONE', ( #86, #18 ), #156, .T. ) ;
#9 = AXIS2_PLACEMENT_3D ( 'NONE', #127, #162, #167 ) ;
#10 = AXIS2_PLACEMENT_3D ( 'NONE', #40, #142, #19 ) ;
#11 = DATE_AND_TIME ( #171, #157 ) ;
#12 = EDGE_LOOP ( 'NONE', ( #49 ) ) ;
#13 = PERSON_AND_ORGANIZATION_ROLE ( 'design_owner' ) ;
#14 = EDGE_LOOP ( 'NONE', ( #51 ) ) ;
#15 = ORIENTED_EDGE ( 'NONE', *, *, #75, .F. ) ;
#16 = CC_DESIGN_APPROVAL ( #17, ( #109 ) ) ;
#17 = APPROVAL ( #206, 'UNSPECIFIED' ) ;
#18 = FACE_BOUND ( 'NONE', #69, .T. ) ;
#19 = DIRECTION ( 'NONE',  ( -4.275831445896958607E-31, -1.000000000000000000, -1.224646799147353207E-16 ) ) ;
#20 = ORGANIZATION ( 'UNSPECIFIED', 'UNSPECIFIED', '' ) ;
#21 = DIRECTION ( 'NONE',  ( 3.491481338843133355E-15, -1.276467311168695266E-16, 1.000000000000000000 ) ) ;
#22 = PERSON ( 'UNSPECIFIED', 'UNSPECIFIED', 'UNSPECIFIED', ('UNSPECIFIED'), ('UNSPECIFIED'), ('UNSPECIFIED') ) ;
#23 = CARTESIAN_POINT ( 'NONE',  ( 1.036969957636410543E-13, 1.499999999999995337, 29.69999999999999929 ) ) ;
#24 = DATE_AND_TIME ( #39, #220 ) ;
#25 = DIRECTION ( 'NONE',  ( 0.0000000000000000000, -1.000000000000000000, 0.0000000000000000000 ) ) ;
#26 = FACE_OUTER_BOUND ( 'NONE', #70, .T. ) ;
#27 = ADVANCED_FACE ( 'NONE', ( #36 ), #77, .T. ) ;
#28 = APPROVAL_ROLE ( '' ) ;
#29 = CARTESIAN_POINT ( 'NONE',  ( 0.0000000000000000000, 0.0000000000000000000, 0.0000000000000000000 ) ) ;
#30 = ADVANCED_FACE ( 'NONE', ( #3, #38 ), #112, .T. ) ;
#31 = DIRECTION ( 'NONE',  ( 0.0000000000000000000, 0.0000000000000000000, 1.000000000000000000 ) ) ;
#32 = CIRCLE ( 'NONE', #116, 1.249999999999998890 ) ;
#33 = CC_DESIGN_PERSON_AND_ORGANIZATION_ASSIGNMENT ( #64, #47, ( #137 ) ) ;
#34 = CIRCLE ( 'NONE', #124, 1.499999999999997780 ) ;
#35 = DIRECTION ( 'NONE',  ( -3.491481338843133355E-15, 1.224646799147353207E-16, -1.000000000000000000 ) ) ;
#36 = FACE_OUTER_BOUND ( 'NONE', #223, .T. ) ;
#37 = CARTESIAN_POINT ( 'NONE',  ( 2.793185071074506684E-14, -1.250000000000000000, 8.000000000000000000 ) ) ;
#38 = FACE_OUTER_BOUND ( 'NONE', #14, .T. ) ;
#39 = CALENDAR_DATE ( 2021, 8, 12 ) ;
#40 = CARTESIAN_POINT ( 'NONE',  ( -2.672352522657793747E-31, 9.373350865883743684E-33, -7.653921826611424909E-17 ) ) ;
#41 = APPROVAL_STATUS ( 'not_yet_approved' ) ;
#42 = AXIS2_PLACEMENT_3D ( 'NONE', #163, #211, #160 ) ;
#43 = ORIENTED_EDGE ( 'NONE', *, *, #75, .T. ) ;
#44 = PERSON_AND_ORGANIZATION ( #22, #20 ) ;
#45 = AXIS2_PLACEMENT_3D ( 'NONE', #58, #138, #187 ) ;
#46 = AXIS2_PLACEMENT_3D ( 'NONE', #52, #183, #25 ) ;
#47 = PERSON_AND_ORGANIZATION_ROLE ( 'design_supplier' ) ;
#48 = COORDINATED_UNIVERSAL_TIME_OFFSET ( 1, 0, .AHEAD. ) ;
#49 = ORIENTED_EDGE ( 'NONE', *, *, #158, .F. ) ;
#50 = AXIS2_PLACEMENT_3D ( 'NONE', #200, #73, #93 ) ;
#51 = ORIENTED_EDGE ( 'NONE', *, *, #218, .F. ) ;
#52 = CARTESIAN_POINT ( 'NONE',  ( 2.793185071074506684E-14, -1.021173848934956212E-15, 8.000000000000000000 ) ) ;
#53 = FACE_OUTER_BOUND ( 'NONE', #59, .T. ) ;
#54 = CARTESIAN_POINT ( 'NONE',  ( 2.793185071074506684E-14, 1.124819836996388964E-32, 8.000000000000000000 ) ) ;
#55 = AXIS2_PLACEMENT_3D ( 'NONE', #54, #180, #7 ) ;
#56 = LOCAL_TIME ( 10, 33, 45.00000000000000000, #97 ) ;
#57 = PLANE ( 'NONE',  #9 ) ;
#58 = CARTESIAN_POINT ( 'NONE',  ( 1.036969957636410543E-13, -3.637200993467639107E-15, 29.69999999999999929 ) ) ;
#59 = EDGE_LOOP ( 'NONE', ( #132 ) ) ;
#60 = CARTESIAN_POINT ( 'NONE',  ( -4.523258767295535827E-32, -1.249999999999998890, -1.295512800533618173E-17 ) ) ;
#61 = MANIFOLD_SOLID_BREP ( 'Corps-Déplacer/Copier1[1]', #189 ) ;
#62 = ADVANCED_BREP_SHAPE_REPRESENTATION ( '379711', ( #61, #133, #155 ), #190 ) ;
#63 = VERTEX_POINT ( 'NONE', #145 ) ;
#64 = PERSON_AND_ORGANIZATION ( #22, #20 ) ;
#65 = PERSON_AND_ORGANIZATION ( #22, #20 ) ;
#66 = SHAPE_DEFINITION_REPRESENTATION ( #120, #62 ) ;
#67 = EDGE_LOOP ( 'NONE', ( #43 ) ) ;
#68 = ORIENTED_EDGE ( 'NONE', *, *, #158, .T. ) ;
#69 = EDGE_LOOP ( 'NONE', ( #78 ) ) ;
#70 = EDGE_LOOP ( 'NONE', ( #178 ) ) ;
#71 = CC_DESIGN_PERSON_AND_ORGANIZATION_ASSIGNMENT ( #65, #143, ( #109 ) ) ;
#72 = CARTESIAN_POINT ( 'NONE',  ( 2.793185071074506684E-14, -1.021173848934956212E-15, 8.000000000000000000 ) ) ;
#73 = DIRECTION ( 'NONE',  ( 3.491481338843133355E-15, -1.276467311168695266E-16, 1.000000000000000000 ) ) ;
#74 = DIRECTION ( 'NONE',  ( 3.491481338843133355E-15, -1.276467311168695266E-16, 1.000000000000000000 ) ) ;
#75 = EDGE_CURVE ( 'NONE', #198, #198, #141, .T. ) ;
#76 = AXIS2_PLACEMENT_3D ( 'NONE', #95, #21, #91 ) ;
#77 = PLANE ( 'NONE',  #55 ) ;
#78 = ORIENTED_EDGE ( 'NONE', *, *, #113, .T. ) ;
#79 = CARTESIAN_POINT ( 'NONE',  ( 2.793185071074506684E-14, 1.124819836996388964E-32, 8.000000000000000000 ) ) ;
#80 = PERSON_AND_ORGANIZATION_ROLE ( 'classification_officer' ) ;
#81 = AXIS2_PLACEMENT_3D ( 'NONE', #79, #111, #184 ) ;
#82 = PERSON_AND_ORGANIZATION ( #22, #20 ) ;
#83 = APPROVAL_DATE_TIME ( #129, #1 ) ;
#84 = ORIENTED_EDGE ( 'NONE', *, *, #151, .F. ) ;
#85 = DATE_AND_TIME ( #175, #181 ) ;
#86 = FACE_OUTER_BOUND ( 'NONE', #103, .T. ) ;
#87 = PRODUCT ( '379711', '379711', '', ( #170 ) ) ;
#88 = CC_DESIGN_DATE_AND_TIME_ASSIGNMENT ( #147, #115, ( #164 ) ) ;
#89 = FACE_OUTER_BOUND ( 'NONE', #12, .T. ) ;
#90 = COORDINATED_UNIVERSAL_TIME_OFFSET ( 1, 0, .AHEAD. ) ;
#91 = DIRECTION ( 'NONE',  ( -4.456761796588770537E-31, -1.000000000000000000, -1.276467311168695019E-16 ) ) ;
#92 = EDGE_CURVE ( 'NONE', #110, #110, #210, .T. ) ;
#93 = DIRECTION ( 'NONE',  ( 0.0000000000000000000, -1.000000000000000000, 0.0000000000000000000 ) ) ;
#94 = PERSON_AND_ORGANIZATION ( #22, #20 ) ;
#95 = CARTESIAN_POINT ( 'NONE',  ( -6.413839710158237013E-31, 0.0000000000000000000, -1.836996703606440502E-16 ) ) ;
#96 = DATE_TIME_ROLE ( 'creation_date' ) ;
#97 = COORDINATED_UNIVERSAL_TIME_OFFSET ( 1, 0, .AHEAD. ) ;
#98 = ADVANCED_FACE ( 'NONE', ( #213, #53 ), #194, .T. ) ;
#99 = DIRECTION ( 'NONE',  ( 1.000000000000000000, 0.0000000000000000000, 0.0000000000000000000 ) ) ;
#100 = PERSON_AND_ORGANIZATION ( #22, #20 ) ;
#101 = APPLICATION_CONTEXT ( 'configuration controlled 3d designs of mechanical parts and assemblies' ) ;
#102 = CARTESIAN_POINT ( 'NONE',  ( 3.118944714830532257E-14, -1.499999999999998890, 8.933012701892208085 ) ) ;
#103 = EDGE_LOOP ( 'NONE', ( #208 ) ) ;
#104 = CALENDAR_DATE ( 2021, 8, 12 ) ;
#105 = APPROVAL_ROLE ( '' ) ;
#106 = PLANE ( 'NONE',  #81 ) ;
#107 = COORDINATED_UNIVERSAL_TIME_OFFSET ( 1, 0, .AHEAD. ) ;
#108 = DIRECTION ( 'NONE',  ( -4.456761796588770537E-31, -1.000000000000000000, -1.276467311168695266E-16 ) ) ;
#109 = PRODUCT_DEFINITION ( 'UNKNOWN', '', #137, #169 ) ;
#110 = VERTEX_POINT ( 'NONE', #23 ) ;
#111 = DIRECTION ( 'NONE',  ( 3.491481338843133355E-15, -1.224646799147353207E-16, 1.000000000000000000 ) ) ;
#112 = CYLINDRICAL_SURFACE ( 'NONE', #42, 1.499999999999997780 ) ;
#113 = EDGE_CURVE ( 'NONE', #6, #6, #207, .T. ) ;
#114 = SECURITY_CLASSIFICATION_LEVEL ( 'unclassified' ) ;
#115 = DATE_TIME_ROLE ( 'classification_date' ) ;
#116 = AXIS2_PLACEMENT_3D ( 'NONE', #140, #74, #108 ) ;
#117 = EDGE_LOOP ( 'NONE', ( #84 ) ) ;
#118 = AXIS2_PLACEMENT_3D ( 'NONE', #136, #209, #4 ) ;
#119 = CC_DESIGN_PERSON_AND_ORGANIZATION_ASSIGNMENT ( #153, #13, ( #87 ) ) ;
#120 = PRODUCT_DEFINITION_SHAPE ( 'NONE', 'NONE',  #109 ) ;
#121 = CLOSED_SHELL ( 'NONE', ( #27, #195, #161 ) ) ;
#122 = DIRECTION ( 'NONE',  ( 0.0000000000000000000, -1.000000000000000000, 0.0000000000000000000 ) ) ;
#123 = FACE_OUTER_BOUND ( 'NONE', #179, .T. ) ;
#124 = AXIS2_PLACEMENT_3D ( 'NONE', #165, #126, #125 ) ;
#125 = DIRECTION ( 'NONE',  ( 0.0000000000000000000, -1.000000000000000000, 0.0000000000000000000 ) ) ;
#126 = DIRECTION ( 'NONE',  ( -3.491481338843133355E-15, 1.276467311168695266E-16, -1.000000000000000000 ) ) ;
#127 = CARTESIAN_POINT ( 'NONE',  ( 1.047444401652940007E-13, 8.998558695971082698E-33, 30.00000000000000000 ) ) ;
#128 = APPROVAL_DATE_TIME ( #11, #199 ) ;
#129 = DATE_AND_TIME ( #150, #201 ) ;
#130 =( NAMED_UNIT ( * ) SI_UNIT ( $, .STERADIAN. ) SOLID_ANGLE_UNIT ( ) );
#131 = ADVANCED_FACE ( 'NONE', ( #123 ), #106, .F. ) ;
#132 = ORIENTED_EDGE ( 'NONE', *, *, #218, .T. ) ;
#133 = MANIFOLD_SOLID_BREP ( 'Corps-Déplacer/Copier1[2]', #121 ) ;
#134 = ORIENTED_EDGE ( 'NONE', *, *, #151, .T. ) ;
#135 = ADVANCED_FACE ( 'NONE', ( #26 ), #57, .F. ) ;
#136 = CARTESIAN_POINT ( 'NONE',  ( 1.047444401652940007E-13, -3.673940397442059178E-15, 30.00000000000000000 ) ) ;
#137 = PRODUCT_DEFINITION_FORMATION_WITH_SPECIFIED_SOURCE ( 'ANY', '', #87, .NOT_KNOWN. ) ;
#138 = DIRECTION ( 'NONE',  ( -3.491481338843133355E-15, 1.224646799147353207E-16, -1.000000000000000000 ) ) ;
#139 = CC_DESIGN_PERSON_AND_ORGANIZATION_ASSIGNMENT ( #154, #221, ( #137 ) ) ;
#140 = CARTESIAN_POINT ( 'NONE',  ( 5.118626369006404662E-31, -4.216209264372889136E-32, 1.466032858907505801E-16 ) ) ;
#141 = CIRCLE ( 'NONE', #148, 1.249999999999998890 ) ;
#142 = DIRECTION ( 'NONE',  ( 3.491481338843133355E-15, -1.224646799147353207E-16, 1.000000000000000000 ) ) ;
#143 = PERSON_AND_ORGANIZATION_ROLE ( 'creator' ) ;
#144 = CARTESIAN_POINT ( 'NONE',  ( 1.047444401652940007E-13, 1.199999999999995293, 30.00000000000000000 ) ) ;
#145 = CARTESIAN_POINT ( 'NONE',  ( 2.793185071074506684E-14, -1.250000000000000000, 8.000000000000000000 ) ) ;
#146 = UNCERTAINTY_MEASURE_WITH_UNIT (LENGTH_MEASURE( 1.000000000000000082E-05 ), #168, 'distance_accuracy_value', 'NONE');
#147 = DATE_AND_TIME ( #104, #56 ) ;
#148 = AXIS2_PLACEMENT_3D ( 'NONE', #72, #212, #122 ) ;
#149 = APPROVAL_PERSON_ORGANIZATION ( #94, #199, #28 ) ;
#150 = CALENDAR_DATE ( 2021, 8, 12 ) ;
#151 = EDGE_CURVE ( 'NONE', #173, #173, #32, .T. ) ;
#152 = APPROVAL_STATUS ( 'not_yet_approved' ) ;
#153 = PERSON_AND_ORGANIZATION ( #22, #20 ) ;
#154 = PERSON_AND_ORGANIZATION ( #22, #20 ) ;
#155 = AXIS2_PLACEMENT_3D ( 'NONE', #29, #31, #99 ) ;
#156 = CONICAL_SURFACE ( 'NONE', #118, 1.199999999999999067, 0.7853981633974511656 ) ;
#157 = LOCAL_TIME ( 10, 33, 45.00000000000000000, #90 ) ;
#158 = EDGE_CURVE ( 'NONE', #63, #63, #185, .T. ) ;
#159 = CC_DESIGN_SECURITY_CLASSIFICATION ( #164, ( #137 ) ) ;
#160 = DIRECTION ( 'NONE',  ( 4.275831445896959482E-31, 1.000000000000000000, 1.224646799147353207E-16 ) ) ;
#161 = ADVANCED_FACE ( 'NONE', ( #197 ), #182, .F. ) ;
#162 = DIRECTION ( 'NONE',  ( -3.491481338843133355E-15, 1.224646799147353207E-16, -1.000000000000000000 ) ) ;
#163 = CARTESIAN_POINT ( 'NONE',  ( 0.0000000000000000000, 0.0000000000000000000, 0.0000000000000000000 ) ) ;
#164 = SECURITY_CLASSIFICATION ( '', '', #114 ) ;
#165 = CARTESIAN_POINT ( 'NONE',  ( 3.118944714830532257E-14, -1.140269870422014662E-15, 8.933012701892208085 ) ) ;
#166 = CC_DESIGN_PERSON_AND_ORGANIZATION_ASSIGNMENT ( #100, #80, ( #164 ) ) ;
#167 = DIRECTION ( 'NONE',  ( 4.275831445896958607E-31, 1.000000000000000000, 1.224646799147353207E-16 ) ) ;
#168 =( LENGTH_UNIT ( ) NAMED_UNIT ( * ) SI_UNIT ( .MILLI., .METRE. ) );
#169 = DESIGN_CONTEXT ( 'detailed design', #101, 'design' ) ;
#170 = MECHANICAL_CONTEXT ( 'NONE', #176, 'mechanical' ) ;
#171 = CALENDAR_DATE ( 2021, 8, 12 ) ;
#172 = EDGE_LOOP ( 'NONE', ( #204 ) ) ;
#173 = VERTEX_POINT ( 'NONE', #60 ) ;
#174 = APPROVAL_PERSON_ORGANIZATION ( #44, #17, #105 ) ;
#175 = CALENDAR_DATE ( 2021, 8, 12 ) ;
#176 = APPLICATION_CONTEXT ( 'configuration controlled 3d designs of mechanical parts and assemblies' ) ;
#177 = CC_DESIGN_APPROVAL ( #199, ( #137 ) ) ;
#178 = ORIENTED_EDGE ( 'NONE', *, *, #113, .F. ) ;
#179 = EDGE_LOOP ( 'NONE', ( #15 ) ) ;
#180 = DIRECTION ( 'NONE',  ( 3.491481338843133355E-15, -1.224646799147353207E-16, 1.000000000000000000 ) ) ;
#181 = LOCAL_TIME ( 10, 33, 45.00000000000000000, #48 ) ;
#182 = PLANE ( 'NONE',  #10 ) ;
#183 = DIRECTION ( 'NONE',  ( 3.491481338843133355E-15, -1.276467311168695266E-16, 1.000000000000000000 ) ) ;
#184 = DIRECTION ( 'NONE',  ( -4.275831445896958607E-31, -1.000000000000000000, -1.224646799147353207E-16 ) ) ;
#185 = CIRCLE ( 'NONE', #46, 1.249999999999998890 ) ;
#186 = APPROVAL_PERSON_ORGANIZATION ( #82, #1, #217 ) ;
#187 = DIRECTION ( 'NONE',  ( 0.0000000000000000000, 1.000000000000000000, 0.0000000000000000000 ) ) ;
#188 = COORDINATED_UNIVERSAL_TIME_OFFSET ( 1, 0, .AHEAD. ) ;
#189 = CLOSED_SHELL ( 'NONE', ( #30, #8, #135, #98, #131 ) ) ;
#190 =( GEOMETRIC_REPRESENTATION_CONTEXT ( 3 ) GLOBAL_UNCERTAINTY_ASSIGNED_CONTEXT ( ( #146 ) ) GLOBAL_UNIT_ASSIGNED_CONTEXT ( ( #168, #191, #130 ) ) REPRESENTATION_CONTEXT ( 'NONE', 'WORKASPACE' ) );
#191 =( NAMED_UNIT ( * ) PLANE_ANGLE_UNIT ( ) SI_UNIT ( $, .RADIAN. ) );
#192 = EDGE_LOOP ( 'NONE', ( #134 ) ) ;
#193 = PRODUCT_RELATED_PRODUCT_CATEGORY ( 'detail', '', ( #87 ) ) ;
#194 = CONICAL_SURFACE ( 'NONE', #50, 6.249999999999998224, 0.2617993877991501850 ) ;
#195 = ADVANCED_FACE ( 'NONE', ( #216, #89 ), #215, .T. ) ;
#196 = CARTESIAN_POINT ( 'NONE',  ( 1.047444401652940007E-13, -3.673940397442059178E-15, 30.00000000000000000 ) ) ;
#197 = FACE_OUTER_BOUND ( 'NONE', #117, .T. ) ;
#198 = VERTEX_POINT ( 'NONE', #37 ) ;
#199 = APPROVAL ( #41, 'UNSPECIFIED' ) ;
#200 = CARTESIAN_POINT ( 'NONE',  ( 9.308377946195076208E-14, -3.403094278676149666E-15, 26.66025403784432513 ) ) ;
#201 = LOCAL_TIME ( 10, 33, 45.00000000000000000, #188 ) ;
#202 = APPLICATION_PROTOCOL_DEFINITION ( 'international standard', 'config_control_design', 1994, #101 ) ;
#203 = CC_DESIGN_APPROVAL ( #1, ( #164 ) ) ;
#204 = ORIENTED_EDGE ( 'NONE', *, *, #92, .T. ) ;
#205 = APPLICATION_PROTOCOL_DEFINITION ( 'international standard', 'config_control_design', 1994, #176 ) ;
#206 = APPROVAL_STATUS ( 'not_yet_approved' ) ;
#207 = CIRCLE ( 'NONE', #2, 1.199999999999999067 ) ;
#208 = ORIENTED_EDGE ( 'NONE', *, *, #92, .F. ) ;
#209 = DIRECTION ( 'NONE',  ( -3.491481338843133355E-15, 1.224646799147353207E-16, -1.000000000000000000 ) ) ;
#210 = CIRCLE ( 'NONE', #45, 1.499999999999998890 ) ;
#211 = DIRECTION ( 'NONE',  ( -3.491481338843133355E-15, 1.224646799147353207E-16, -1.000000000000000000 ) ) ;
#212 = DIRECTION ( 'NONE',  ( 3.491481338843133355E-15, -1.276467311168695266E-16, 1.000000000000000000 ) ) ;
#213 = FACE_BOUND ( 'NONE', #67, .T. ) ;
#214 = CC_DESIGN_DATE_AND_TIME_ASSIGNMENT ( #24, #96, ( #109 ) ) ;
#215 = CYLINDRICAL_SURFACE ( 'NONE', #76, 1.249999999999998890 ) ;
#216 = FACE_OUTER_BOUND ( 'NONE', #192, .T. ) ;
#217 = APPROVAL_ROLE ( '' ) ;
#218 = EDGE_CURVE ( 'NONE', #219, #219, #34, .T. ) ;
#219 = VERTEX_POINT ( 'NONE', #102 ) ;
#220 = LOCAL_TIME ( 10, 33, 45.00000000000000000, #107 ) ;
#221 = PERSON_AND_ORGANIZATION_ROLE ( 'creator' ) ;
#222 = APPROVAL_DATE_TIME ( #85, #17 ) ;
#223 = EDGE_LOOP ( 'NONE', ( #68 ) ) ;
ENDSEC;
END-ISO-10303-21;
