ISO-10303-21;
HEADER;
FILE_DESCRIPTION (( 'STEP AP203' ),
    '1' );
FILE_NAME ('379710.step',
    '2021-12-08T09:33:45',
    ( '' ),
    ( '' ),
    'SwSTEP 2.0',
    'SolidWorks 2019',
    '' );
FILE_SCHEMA (( 'CONFIG_CONTROL_DESIGN' ));
ENDSEC;

DATA;
#1 = AXIS2_PLACEMENT_3D ( 'NONE', #197, #43, #127 ) ;
#2 = APPLICATION_PROTOCOL_DEFINITION ( 'international standard', 'config_control_design', 1994, #134 ) ;
#3 = CARTESIAN_POINT ( 'NONE',  ( -1.282747271474971416E-30, 4.499271763678766679E-32, -3.673934204385570792E-16 ) ) ;
#4 = ORIENTED_EDGE ( 'NONE', *, *, #187, .F. ) ;
#5 = VERTEX_POINT ( 'NONE', #108 ) ;
#6 =( NAMED_UNIT ( * ) SI_UNIT ( $, .STERADIAN. ) SOLID_ANGLE_UNIT ( ) );
#7 = EDGE_CURVE ( 'NONE', #5, #5, #198, .T. ) ;
#8 = AXIS2_PLACEMENT_3D ( 'NONE', #109, #174, #22 ) ;
#9 = DESIGN_CONTEXT ( 'detailed design', #134, 'design' ) ;
#10 = PERSON_AND_ORGANIZATION ( #106, #128 ) ;
#11 = AXIS2_PLACEMENT_3D ( 'NONE', #152, #186, #203 ) ;
#12 = PLANE ( 'NONE',  #96 ) ;
#13 = DIRECTION ( 'NONE',  ( 0.0000000000000000000, 1.000000000000000000, 0.0000000000000000000 ) ) ;
#14 = CC_DESIGN_PERSON_AND_ORGANIZATION_ASSIGNMENT ( #98, #73, ( #20 ) ) ;
#15 = COORDINATED_UNIVERSAL_TIME_OFFSET ( 1, 0, .AHEAD. ) ;
#16 = CARTESIAN_POINT ( 'NONE',  ( 2.793185071074506684E-14, -9.797174393178825657E-16, 8.000000000000000000 ) ) ;
#17 = AXIS2_PLACEMENT_3D ( 'NONE', #102, #56, #150 ) ;
#18 = EDGE_CURVE ( 'NONE', #193, #193, #171, .T. ) ;
#19 = DIRECTION ( 'NONE',  ( -3.491481338843133355E-15, 1.224646799147353207E-16, -1.000000000000000000 ) ) ;
#20 = PRODUCT_DEFINITION ( 'UNKNOWN', '', #39, #9 ) ;
#21 = EDGE_LOOP ( 'NONE', ( #67 ) ) ;
#22 = DIRECTION ( 'NONE',  ( 1.000000000000000000, 0.0000000000000000000, 0.0000000000000000000 ) ) ;
#23 = EDGE_CURVE ( 'NONE', #65, #65, #48, .T. ) ;
#24 = EDGE_LOOP ( 'NONE', ( #69 ) ) ;
#25 = DATE_AND_TIME ( #40, #118 ) ;
#26 = APPROVAL_STATUS ( 'not_yet_approved' ) ;
#27 = FACE_OUTER_BOUND ( 'NONE', #141, .T. ) ;
#28 = DATE_AND_TIME ( #168, #103 ) ;
#29 = CC_DESIGN_APPROVAL ( #202, ( #20 ) ) ;
#30 = FACE_OUTER_BOUND ( 'NONE', #124, .T. ) ;
#31 = MECHANICAL_CONTEXT ( 'NONE', #145, 'mechanical' ) ;
#32 = CC_DESIGN_APPROVAL ( #178, ( #175 ) ) ;
#33 = EDGE_LOOP ( 'NONE', ( #51 ) ) ;
#34 = EDGE_LOOP ( 'NONE', ( #55 ) ) ;
#35 = CARTESIAN_POINT ( 'NONE',  ( 1.326762908760390423E-13, -4.653657836759941941E-15, 38.00000000000000000 ) ) ;
#36 = DIRECTION ( 'NONE',  ( 4.275831445896957731E-31, 1.000000000000000000, 1.224646799147353454E-16 ) ) ;
#37 = APPROVAL_DATE_TIME ( #176, #202 ) ;
#38 = EDGE_LOOP ( 'NONE', ( #194 ) ) ;
#39 = PRODUCT_DEFINITION_FORMATION_WITH_SPECIFIED_SOURCE ( 'ANY', '', #188, .NOT_KNOWN. ) ;
#40 = CALENDAR_DATE ( 2021, 8, 12 ) ;
#41 = DATE_AND_TIME ( #113, #85 ) ;
#42 = CARTESIAN_POINT ( 'NONE',  ( 2.793185071074506684E-14, 9.373498641636547100E-33, 8.000000000000000000 ) ) ;
#43 = DIRECTION ( 'NONE',  ( -3.491481338843133355E-15, 1.224646799147353207E-16, -1.000000000000000000 ) ) ;
#44 = AXIS2_PLACEMENT_3D ( 'NONE', #16, #114, #90 ) ;
#45 = CARTESIAN_POINT ( 'NONE',  ( 2.793185071074506684E-14, -9.797174393178825657E-16, 8.000000000000000000 ) ) ;
#46 = CARTESIAN_POINT ( 'NONE',  ( 1.326762908760390423E-13, 7.498798913309199090E-33, 38.00000000000000000 ) ) ;
#47 = ADVANCED_FACE ( 'NONE', ( #71 ), #88, .F. ) ;
#48 = CIRCLE ( 'NONE', #1, 1.249999999999997113 ) ;
#49 = ADVANCED_FACE ( 'NONE', ( #199 ), #12, .T. ) ;
#50 = CARTESIAN_POINT ( 'NONE',  ( -7.482683407378547866E-31, 1.249999999999992673, -2.143125705451388096E-16 ) ) ;
#51 = ORIENTED_EDGE ( 'NONE', *, *, #7, .F. ) ;
#52 = CARTESIAN_POINT ( 'NONE',  ( 1.318034205413282621E-13, 1.249999999999992673, 37.74999999999999289 ) ) ;
#53 = ADVANCED_FACE ( 'NONE', ( #116, #27 ), #91, .T. ) ;
#54 =( GEOMETRIC_REPRESENTATION_CONTEXT ( 3 ) GLOBAL_UNCERTAINTY_ASSIGNED_CONTEXT ( ( #147 ) ) GLOBAL_UNIT_ASSIGNED_CONTEXT ( ( #195, #172, #6 ) ) REPRESENTATION_CONTEXT ( 'NONE', 'WORKASPACE' ) );
#55 = ORIENTED_EDGE ( 'NONE', *, *, #7, .T. ) ;
#56 = DIRECTION ( 'NONE',  ( 3.491481338843133355E-15, -1.224646799147353207E-16, 1.000000000000000000 ) ) ;
#57 = PERSON_AND_ORGANIZATION_ROLE ( 'creator' ) ;
#58 = LOCAL_TIME ( 10, 33, 45.00000000000000000, #15 ) ;
#59 = DIRECTION ( 'NONE',  ( 3.491481338843133355E-15, -1.224646799147353207E-16, 1.000000000000000000 ) ) ;
#60 = CONICAL_SURFACE ( 'NONE', #107, 0.9999999999999972244, 0.7853981633974339571 ) ;
#61 = FACE_OUTER_BOUND ( 'NONE', #34, .T. ) ;
#62 = CC_DESIGN_APPROVAL ( #63, ( #39 ) ) ;
#63 = APPROVAL ( #133, 'UNSPECIFIED' ) ;
#64 = FACE_OUTER_BOUND ( 'NONE', #38, .T. ) ;
#65 = VERTEX_POINT ( 'NONE', #52 ) ;
#66 = ORIENTED_EDGE ( 'NONE', *, *, #23, .T. ) ;
#67 = ORIENTED_EDGE ( 'NONE', *, *, #187, .T. ) ;
#68 = APPLICATION_PROTOCOL_DEFINITION ( 'international standard', 'config_control_design', 1994, #145 ) ;
#69 = ORIENTED_EDGE ( 'NONE', *, *, #105, .F. ) ;
#70 = DATE_AND_TIME ( #75, #58 ) ;
#71 = FACE_OUTER_BOUND ( 'NONE', #21, .T. ) ;
#72 = DIRECTION ( 'NONE',  ( 0.0000000000000000000, 1.000000000000000000, 0.0000000000000000000 ) ) ;
#73 = PERSON_AND_ORGANIZATION_ROLE ( 'creator' ) ;
#74 = FACE_OUTER_BOUND ( 'NONE', #173, .T. ) ;
#75 = CALENDAR_DATE ( 2021, 8, 12 ) ;
#76 = AXIS2_PLACEMENT_3D ( 'NONE', #99, #154, #170 ) ;
#77 = ADVANCED_FACE ( 'NONE', ( #61 ), #156, .F. ) ;
#78 = CLOSED_SHELL ( 'NONE', ( #47, #53, #49 ) ) ;
#79 = PERSON_AND_ORGANIZATION ( #106, #128 ) ;
#80 = CARTESIAN_POINT ( 'NONE',  ( 0.0000000000000000000, 0.0000000000000000000, 0.0000000000000000000 ) ) ;
#81 = ORIENTED_EDGE ( 'NONE', *, *, #18, .F. ) ;
#82 = DIRECTION ( 'NONE',  ( 0.0000000000000000000, 1.000000000000000000, 0.0000000000000000000 ) ) ;
#83 = DIRECTION ( 'NONE',  ( -3.491481338843133355E-15, 1.224646799147353207E-16, -1.000000000000000000 ) ) ;
#84 = CC_DESIGN_DATE_AND_TIME_ASSIGNMENT ( #25, #146, ( #175 ) ) ;
#85 = LOCAL_TIME ( 10, 33, 45.00000000000000000, #183 ) ;
#86 = AXIS2_PLACEMENT_3D ( 'NONE', #80, #94, #125 ) ;
#87 = PERSON_AND_ORGANIZATION_ROLE ( 'design_supplier' ) ;
#88 = PLANE ( 'NONE',  #17 ) ;
#89 = AXIS2_PLACEMENT_3D ( 'NONE', #3, #110, #36 ) ;
#90 = DIRECTION ( 'NONE',  ( 0.0000000000000000000, 1.000000000000000000, 0.0000000000000000000 ) ) ;
#91 = CYLINDRICAL_SURFACE ( 'NONE', #76, 1.249999999999993339 ) ;
#92 = APPROVAL_ROLE ( '' ) ;
#93 = PRODUCT_RELATED_PRODUCT_CATEGORY ( 'detail', '', ( #188 ) ) ;
#94 = DIRECTION ( 'NONE',  ( -3.491481338843133355E-15, 1.224646799147353207E-16, -1.000000000000000000 ) ) ;
#95 = ORIENTED_EDGE ( 'NONE', *, *, #18, .T. ) ;
#96 = AXIS2_PLACEMENT_3D ( 'NONE', #42, #59, #126 ) ;
#97 = FACE_BOUND ( 'NONE', #191, .T. ) ;
#98 = PERSON_AND_ORGANIZATION ( #106, #128 ) ;
#99 = CARTESIAN_POINT ( 'NONE',  ( 0.0000000000000000000, 0.0000000000000000000, 0.0000000000000000000 ) ) ;
#100 = AXIS2_PLACEMENT_3D ( 'NONE', #201, #184, #72 ) ;
#101 = APPROVAL_DATE_TIME ( #41, #63 ) ;
#102 = CARTESIAN_POINT ( 'NONE',  ( -6.413736357374857078E-31, 2.249635881839383340E-32, -1.836967102192785396E-16 ) ) ;
#103 = LOCAL_TIME ( 10, 33, 45.00000000000000000, #129 ) ;
#104 = COORDINATED_UNIVERSAL_TIME_OFFSET ( 1, 0, .AHEAD. ) ;
#105 = EDGE_CURVE ( 'NONE', #190, #190, #180, .T. ) ;
#106 = PERSON ( 'UNSPECIFIED', 'UNSPECIFIED', 'UNSPECIFIED', ('UNSPECIFIED'), ('UNSPECIFIED'), ('UNSPECIFIED') ) ;
#107 = AXIS2_PLACEMENT_3D ( 'NONE', #35, #83, #82 ) ;
#108 = CARTESIAN_POINT ( 'NONE',  ( 2.793185071074506684E-14, 1.249999999999992673, 8.000000000000000000 ) ) ;
#109 = CARTESIAN_POINT ( 'NONE',  ( 0.0000000000000000000, 0.0000000000000000000, 0.0000000000000000000 ) ) ;
#110 = DIRECTION ( 'NONE',  ( -3.491481338843133355E-15, 1.224646799147353207E-16, -1.000000000000000000 ) ) ;
#111 = ADVANCED_FACE ( 'NONE', ( #74 ), #119, .F. ) ;
#112 = CALENDAR_DATE ( 2021, 8, 12 ) ;
#113 = CALENDAR_DATE ( 2021, 8, 12 ) ;
#114 = DIRECTION ( 'NONE',  ( -3.491481338843133355E-15, 1.224646799147353207E-16, -1.000000000000000000 ) ) ;
#115 = PERSON_AND_ORGANIZATION ( #106, #128 ) ;
#116 = FACE_OUTER_BOUND ( 'NONE', #177, .T. ) ;
#117 = CC_DESIGN_PERSON_AND_ORGANIZATION_ASSIGNMENT ( #115, #185, ( #175 ) ) ;
#118 = LOCAL_TIME ( 10, 33, 45.00000000000000000, #104 ) ;
#119 = PLANE ( 'NONE',  #161 ) ;
#120 = ADVANCED_FACE ( 'NONE', ( #169, #30 ), #155, .T. ) ;
#121 = CIRCLE ( 'NONE', #89, 1.249999999999992673 ) ;
#122 = PERSON_AND_ORGANIZATION ( #106, #128 ) ;
#123 = LOCAL_TIME ( 10, 33, 45.00000000000000000, #164 ) ;
#124 = EDGE_LOOP ( 'NONE', ( #66 ) ) ;
#125 = DIRECTION ( 'NONE',  ( 4.275831445896957731E-31, 1.000000000000000000, 1.224646799147352961E-16 ) ) ;
#126 = DIRECTION ( 'NONE',  ( -4.275831445896958607E-31, -1.000000000000000000, -1.224646799147353207E-16 ) ) ;
#127 = DIRECTION ( 'NONE',  ( 0.0000000000000000000, 1.000000000000000000, 0.0000000000000000000 ) ) ;
#128 = ORGANIZATION ( 'UNSPECIFIED', 'UNSPECIFIED', '' ) ;
#129 = COORDINATED_UNIVERSAL_TIME_OFFSET ( 1, 0, .AHEAD. ) ;
#130 = MANIFOLD_SOLID_BREP ( 'Corps-Déplacer/Copier1[2]', #78 ) ;
#131 = APPROVAL_DATE_TIME ( #70, #178 ) ;
#132 = DATE_TIME_ROLE ( 'creation_date' ) ;
#133 = APPROVAL_STATUS ( 'not_yet_approved' ) ;
#134 = APPLICATION_CONTEXT ( 'configuration controlled 3d designs of mechanical parts and assemblies' ) ;
#135 = DIRECTION ( 'NONE',  ( 4.275831445896958607E-31, 1.000000000000000000, 1.224646799147353207E-16 ) ) ;
#136 = APPROVAL_ROLE ( '' ) ;
#137 = AXIS2_PLACEMENT_3D ( 'NONE', #45, #166, #13 ) ;
#138 = PERSON_AND_ORGANIZATION_ROLE ( 'design_owner' ) ;
#139 = CC_DESIGN_PERSON_AND_ORGANIZATION_ASSIGNMENT ( #79, #138, ( #188 ) ) ;
#140 = APPROVAL_PERSON_ORGANIZATION ( #167, #178, #151 ) ;
#141 = EDGE_LOOP ( 'NONE', ( #163 ) ) ;
#142 = CARTESIAN_POINT ( 'NONE',  ( 1.326762908760390423E-13, 0.9999999999999926725, 38.00000000000000000 ) ) ;
#143 = CLOSED_SHELL ( 'NONE', ( #77, #120, #159, #111 ) ) ;
#144 = CC_DESIGN_DATE_AND_TIME_ASSIGNMENT ( #28, #132, ( #20 ) ) ;
#145 = APPLICATION_CONTEXT ( 'configuration controlled 3d designs of mechanical parts and assemblies' ) ;
#146 = DATE_TIME_ROLE ( 'classification_date' ) ;
#147 = UNCERTAINTY_MEASURE_WITH_UNIT (LENGTH_MEASURE( 1.000000000000000082E-05 ), #195, 'distance_accuracy_value', 'NONE');
#148 = PERSON_AND_ORGANIZATION ( #106, #128 ) ;
#149 = SECURITY_CLASSIFICATION_LEVEL ( 'unclassified' ) ;
#150 = DIRECTION ( 'NONE',  ( -4.275831445896958607E-31, -1.000000000000000000, -1.224646799147353207E-16 ) ) ;
#151 = APPROVAL_ROLE ( '' ) ;
#152 = CARTESIAN_POINT ( 'NONE',  ( 2.793185071074506684E-14, 9.373498641636547100E-33, 8.000000000000000000 ) ) ;
#153 = APPROVAL_PERSON_ORGANIZATION ( #10, #63, #136 ) ;
#154 = DIRECTION ( 'NONE',  ( -3.491481338843133355E-15, 1.224646799147353207E-16, -1.000000000000000000 ) ) ;
#155 = CYLINDRICAL_SURFACE ( 'NONE', #86, 1.249999999999995559 ) ;
#156 = PLANE ( 'NONE',  #11 ) ;
#157 = PRODUCT_DEFINITION_SHAPE ( 'NONE', 'NONE',  #20 ) ;
#158 = CC_DESIGN_SECURITY_CLASSIFICATION ( #175, ( #39 ) ) ;
#159 = ADVANCED_FACE ( 'NONE', ( #64, #97 ), #60, .T. ) ;
#160 = CARTESIAN_POINT ( 'NONE',  ( 2.793185071074506684E-14, 1.249999999999992673, 8.000000000000000000 ) ) ;
#161 = AXIS2_PLACEMENT_3D ( 'NONE', #46, #19, #135 ) ;
#162 = VERTEX_POINT ( 'NONE', #50 ) ;
#163 = ORIENTED_EDGE ( 'NONE', *, *, #105, .T. ) ;
#164 = COORDINATED_UNIVERSAL_TIME_OFFSET ( 1, 0, .AHEAD. ) ;
#165 = CC_DESIGN_PERSON_AND_ORGANIZATION_ASSIGNMENT ( #181, #87, ( #39 ) ) ;
#166 = DIRECTION ( 'NONE',  ( -3.491481338843133355E-15, 1.224646799147353207E-16, -1.000000000000000000 ) ) ;
#167 = PERSON_AND_ORGANIZATION ( #106, #128 ) ;
#168 = CALENDAR_DATE ( 2021, 8, 12 ) ;
#169 = FACE_OUTER_BOUND ( 'NONE', #33, .T. ) ;
#170 = DIRECTION ( 'NONE',  ( 4.275831445896958607E-31, 1.000000000000000000, 1.224646799147352961E-16 ) ) ;
#171 = CIRCLE ( 'NONE', #100, 0.9999999999999972244 ) ;
#172 =( NAMED_UNIT ( * ) PLANE_ANGLE_UNIT ( ) SI_UNIT ( $, .RADIAN. ) );
#173 = EDGE_LOOP ( 'NONE', ( #81 ) ) ;
#174 = DIRECTION ( 'NONE',  ( 0.0000000000000000000, 0.0000000000000000000, 1.000000000000000000 ) ) ;
#175 = SECURITY_CLASSIFICATION ( '', '', #149 ) ;
#176 = DATE_AND_TIME ( #112, #123 ) ;
#177 = EDGE_LOOP ( 'NONE', ( #4 ) ) ;
#178 = APPROVAL ( #26, 'UNSPECIFIED' ) ;
#179 = SHAPE_DEFINITION_REPRESENTATION ( #157, #192 ) ;
#180 = CIRCLE ( 'NONE', #137, 1.249999999999993783 ) ;
#181 = PERSON_AND_ORGANIZATION ( #106, #128 ) ;
#182 = CC_DESIGN_PERSON_AND_ORGANIZATION_ASSIGNMENT ( #148, #57, ( #39 ) ) ;
#183 = COORDINATED_UNIVERSAL_TIME_OFFSET ( 1, 0, .AHEAD. ) ;
#184 = DIRECTION ( 'NONE',  ( -3.491481338843133355E-15, 1.224646799147353207E-16, -1.000000000000000000 ) ) ;
#185 = PERSON_AND_ORGANIZATION_ROLE ( 'classification_officer' ) ;
#186 = DIRECTION ( 'NONE',  ( 3.491481338843133355E-15, -1.224646799147353207E-16, 1.000000000000000000 ) ) ;
#187 = EDGE_CURVE ( 'NONE', #162, #162, #121, .T. ) ;
#188 = PRODUCT ( '379710', '379710', '', ( #31 ) ) ;
#189 = APPROVAL_STATUS ( 'not_yet_approved' ) ;
#190 = VERTEX_POINT ( 'NONE', #160 ) ;
#191 = EDGE_LOOP ( 'NONE', ( #95 ) ) ;
#192 = ADVANCED_BREP_SHAPE_REPRESENTATION ( '379710', ( #200, #130, #8 ), #54 ) ;
#193 = VERTEX_POINT ( 'NONE', #142 ) ;
#194 = ORIENTED_EDGE ( 'NONE', *, *, #23, .F. ) ;
#195 =( LENGTH_UNIT ( ) NAMED_UNIT ( * ) SI_UNIT ( .MILLI., .METRE. ) );
#196 = APPROVAL_PERSON_ORGANIZATION ( #122, #202, #92 ) ;
#197 = CARTESIAN_POINT ( 'NONE',  ( 1.318034205413282621E-13, -4.623041666781257365E-15, 37.74999999999999289 ) ) ;
#198 = CIRCLE ( 'NONE', #44, 1.249999999999993783 ) ;
#199 = FACE_OUTER_BOUND ( 'NONE', #24, .T. ) ;
#200 = MANIFOLD_SOLID_BREP ( 'Corps-Déplacer/Copier1[1]', #143 ) ;
#201 = CARTESIAN_POINT ( 'NONE',  ( 1.326762908760390423E-13, -4.653657836759941941E-15, 38.00000000000000000 ) ) ;
#202 = APPROVAL ( #189, 'UNSPECIFIED' ) ;
#203 = DIRECTION ( 'NONE',  ( -4.275831445896958607E-31, -1.000000000000000000, -1.224646799147353207E-16 ) ) ;
ENDSEC;
END-ISO-10303-21;
