ISO-10303-21;
HEADER;
FILE_DESCRIPTION (( 'STEP AP203' ),
    '1' );
FILE_NAME ('379709.step',
    '2021-12-08T09:33:44',
    ( '' ),
    ( '' ),
    'SwSTEP 2.0',
    'SolidWorks 2019',
    '' );
FILE_SCHEMA (( 'CONFIG_CONTROL_DESIGN' ));
ENDSEC;

DATA;
#1 = LOCAL_TIME ( 10, 33, 44.00000000000000000, #128 ) ;
#2 = ADVANCED_FACE ( 'NONE', ( #10, #93 ), #113, .T. ) ;
#3 = PERSON_AND_ORGANIZATION ( #200, #66 ) ;
#4 = CLOSED_SHELL ( 'NONE', ( #156, #45, #164 ) ) ;
#5 = SHAPE_DEFINITION_REPRESENTATION ( #20, #90 ) ;
#6 = PERSON_AND_ORGANIZATION ( #200, #66 ) ;
#7 = EDGE_LOOP ( 'NONE', ( #168 ) ) ;
#8 = CALENDAR_DATE ( 2021, 8, 12 ) ;
#9 = AXIS2_PLACEMENT_3D ( 'NONE', #158, #177, #140 ) ;
#10 = FACE_BOUND ( 'NONE', #89, .T. ) ;
#11 = PERSON_AND_ORGANIZATION_ROLE ( 'design_supplier' ) ;
#12 = CARTESIAN_POINT ( 'NONE',  ( 0.0000000000000000000, 0.0000000000000000000, 0.0000000000000000000 ) ) ;
#13 = CC_DESIGN_APPROVAL ( #42, ( #136 ) ) ;
#14 = VERTEX_POINT ( 'NONE', #77 ) ;
#15 = CARTESIAN_POINT ( 'NONE',  ( 2.793185071074506684E-14, -1.000000000000000444, 8.000000000000000000 ) ) ;
#16 = PLANE ( 'NONE',  #36 ) ;
#17 = DIRECTION ( 'NONE',  ( 3.491481338843133355E-15, -1.276467311168695266E-16, 1.000000000000000000 ) ) ;
#18 = CC_DESIGN_SECURITY_CLASSIFICATION ( #40, ( #136 ) ) ;
#19 = DATE_AND_TIME ( #143, #126 ) ;
#20 = PRODUCT_DEFINITION_SHAPE ( 'NONE', 'NONE',  #195 ) ;
#21 = PERSON_AND_ORGANIZATION_ROLE ( 'creator' ) ;
#22 = COORDINATED_UNIVERSAL_TIME_OFFSET ( 1, 0, .AHEAD. ) ;
#23 = ORIENTED_EDGE ( 'NONE', *, *, #63, .F. ) ;
#24 = APPROVAL ( #107, 'UNSPECIFIED' ) ;
#25 = DIRECTION ( 'NONE',  ( 3.491481338843133355E-15, -1.276467311168695266E-16, 1.000000000000000000 ) ) ;
#26 = ORIENTED_EDGE ( 'NONE', *, *, #96, .T. ) ;
#27 = EDGE_LOOP ( 'NONE', ( #181 ) ) ;
#28 = CARTESIAN_POINT ( 'NONE',  ( 2.094888803305880013E-13, 1.799711739194218455E-32, 60.00000000000000000 ) ) ;
#29 = FACE_OUTER_BOUND ( 'NONE', #7, .T. ) ;
#30 = APPROVAL_PERSON_ORGANIZATION ( #122, #24, #86 ) ;
#31 = APPLICATION_CONTEXT ( 'configuration controlled 3d designs of mechanical parts and assemblies' ) ;
#32 = VERTEX_POINT ( 'NONE', #15 ) ;
#33 = VERTEX_POINT ( 'NONE', #153 ) ;
#34 = APPROVAL_PERSON_ORGANIZATION ( #199, #114, #178 ) ;
#35 =( NAMED_UNIT ( * ) SI_UNIT ( $, .STERADIAN. ) SOLID_ANGLE_UNIT ( ) );
#36 = AXIS2_PLACEMENT_3D ( 'NONE', #28, #203, #47 ) ;
#37 = PERSON_AND_ORGANIZATION_ROLE ( 'design_owner' ) ;
#38 = COORDINATED_UNIVERSAL_TIME_OFFSET ( 1, 0, .AHEAD. ) ;
#39 = CARTESIAN_POINT ( 'NONE',  ( 2.094888803305880013E-13, -7.347880794884118356E-15, 60.00000000000000000 ) ) ;
#40 = SECURITY_CLASSIFICATION ( '', '', #142 ) ;
#41 = ORIENTED_EDGE ( 'NONE', *, *, #204, .T. ) ;
#42 = APPROVAL ( #57, 'UNSPECIFIED' ) ;
#43 = DATE_AND_TIME ( #8, #1 ) ;
#44 = FACE_OUTER_BOUND ( 'NONE', #106, .T. ) ;
#45 = ADVANCED_FACE ( 'NONE', ( #215, #129 ), #59, .T. ) ;
#46 = CIRCLE ( 'NONE', #141, 0.9999999999999993339 ) ;
#47 = DIRECTION ( 'NONE',  ( 4.275831445896958607E-31, 1.000000000000000000, 1.224646799147353207E-16 ) ) ;
#48 = VERTEX_POINT ( 'NONE', #171 ) ;
#49 = AXIS2_PLACEMENT_3D ( 'NONE', #50, #119, #138 ) ;
#50 = CARTESIAN_POINT ( 'NONE',  ( 6.232816818153587444E-31, -4.623551463493444536E-32, 1.785149686699676536E-16 ) ) ;
#51 = DIRECTION ( 'NONE',  ( 0.0000000000000000000, 1.000000000000000000, 0.0000000000000000000 ) ) ;
#52 = AXIS2_PLACEMENT_3D ( 'NONE', #167, #61, #51 ) ;
#53 = DATE_TIME_ROLE ( 'classification_date' ) ;
#54 = APPROVAL_ROLE ( '' ) ;
#55 = CC_DESIGN_PERSON_AND_ORGANIZATION_ASSIGNMENT ( #124, #21, ( #136 ) ) ;
#56 = CIRCLE ( 'NONE', #217, 2.400000000000000355 ) ;
#57 = APPROVAL_STATUS ( 'not_yet_approved' ) ;
#58 = EDGE_LOOP ( 'NONE', ( #198 ) ) ;
#59 = CYLINDRICAL_SURFACE ( 'NONE', #197, 0.9999999999999995559 ) ;
#60 = CC_DESIGN_APPROVAL ( #114, ( #195 ) ) ;
#61 = DIRECTION ( 'NONE',  ( -3.491481338843133355E-15, 1.224646799147353207E-16, -1.000000000000000000 ) ) ;
#62 = DIRECTION ( 'NONE',  ( -4.275831445896958607E-31, -1.000000000000000000, -1.224646799147353207E-16 ) ) ;
#63 = EDGE_CURVE ( 'NONE', #48, #48, #56, .T. ) ;
#64 = PLANE ( 'NONE',  #173 ) ;
#65 = CARTESIAN_POINT ( 'NONE',  ( 2.793185071074506684E-14, -1.000000000000000444, 8.000000000000000000 ) ) ;
#66 = ORGANIZATION ( 'UNSPECIFIED', 'UNSPECIFIED', '' ) ;
#67 = ADVANCED_FACE ( 'NONE', ( #44, #112 ), #149, .T. ) ;
#68 = PERSON_AND_ORGANIZATION ( #200, #66 ) ;
#69 = CIRCLE ( 'NONE', #222, 2.999999999999996447 ) ;
#70 = COORDINATED_UNIVERSAL_TIME_OFFSET ( 1, 0, .AHEAD. ) ;
#71 = APPROVAL_STATUS ( 'not_yet_approved' ) ;
#72 = PERSON_AND_ORGANIZATION_ROLE ( 'creator' ) ;
#73 = AXIS2_PLACEMENT_3D ( 'NONE', #155, #152, #172 ) ;
#74 = PERSON_AND_ORGANIZATION ( #200, #66 ) ;
#75 = ORIENTED_EDGE ( 'NONE', *, *, #63, .T. ) ;
#76 = DIRECTION ( 'NONE',  ( 0.0000000000000000000, -1.000000000000000000, 0.0000000000000000000 ) ) ;
#77 = CARTESIAN_POINT ( 'NONE',  ( 1.776055021564818001E-31, -0.9999999999999995559, 5.086823755309817633E-17 ) ) ;
#78 = PERSON_AND_ORGANIZATION ( #200, #66 ) ;
#79 = DIRECTION ( 'NONE',  ( 3.491481338843133355E-15, -1.224646799147353207E-16, 1.000000000000000000 ) ) ;
#80 = CLOSED_SHELL ( 'NONE', ( #102, #67, #175, #2, #212 ) ) ;
#81 = CC_DESIGN_DATE_AND_TIME_ASSIGNMENT ( #110, #103, ( #195 ) ) ;
#82 = FACE_OUTER_BOUND ( 'NONE', #58, .T. ) ;
#83 = CIRCLE ( 'NONE', #73, 3.000000000000000000 ) ;
#84 = PERSON_AND_ORGANIZATION_ROLE ( 'classification_officer' ) ;
#85 = APPROVAL_PERSON_ORGANIZATION ( #74, #42, #54 ) ;
#86 = APPROVAL_ROLE ( '' ) ;
#87 = EDGE_LOOP ( 'NONE', ( #41 ) ) ;
#88 = CALENDAR_DATE ( 2021, 8, 12 ) ;
#89 = EDGE_LOOP ( 'NONE', ( #210 ) ) ;
#90 = ADVANCED_BREP_SHAPE_REPRESENTATION ( '379709', ( #176, #97, #9 ), #131 ) ;
#91 = AXIS2_PLACEMENT_3D ( 'NONE', #216, #94, #145 ) ;
#92 = APPLICATION_CONTEXT ( 'configuration controlled 3d designs of mechanical parts and assemblies' ) ;
#93 = FACE_OUTER_BOUND ( 'NONE', #87, .T. ) ;
#94 = DIRECTION ( 'NONE',  ( 3.491481338843133355E-15, -1.276467311168695266E-16, 1.000000000000000000 ) ) ;
#95 = DIRECTION ( 'NONE',  ( -3.491481338843133355E-15, 1.276467311168695266E-16, -1.000000000000000000 ) ) ;
#96 = EDGE_CURVE ( 'NONE', #14, #14, #157, .T. ) ;
#97 = MANIFOLD_SOLID_BREP ( 'Corps-Déplacer/Copier1[2]', #4 ) ;
#98 = DIRECTION ( 'NONE',  ( 0.0000000000000000000, -1.000000000000000000, 0.0000000000000000000 ) ) ;
#99 = CARTESIAN_POINT ( 'NONE',  ( -4.275870630573523203E-31, 1.499773526796244679E-32, -1.224658022084772044E-16 ) ) ;
#100 = CARTESIAN_POINT ( 'NONE',  ( 5.399262221122730834E-14, -2.999999999999998668, 15.46410161513771975 ) ) ;
#101 = DESIGN_CONTEXT ( 'detailed design', #31, 'design' ) ;
#102 = ADVANCED_FACE ( 'NONE', ( #170, #82 ), #207, .T. ) ;
#103 = DATE_TIME_ROLE ( 'creation_date' ) ;
#104 = PRODUCT_RELATED_PRODUCT_CATEGORY ( 'detail', '', ( #159 ) ) ;
#105 = CALENDAR_DATE ( 2021, 8, 12 ) ;
#106 = EDGE_LOOP ( 'NONE', ( #182 ) ) ;
#107 = APPROVAL_STATUS ( 'not_yet_approved' ) ;
#108 = AXIS2_PLACEMENT_3D ( 'NONE', #12, #174, #220 ) ;
#109 = EDGE_LOOP ( 'NONE', ( #166 ) ) ;
#110 = DATE_AND_TIME ( #88, #189 ) ;
#111 = EDGE_CURVE ( 'NONE', #32, #32, #46, .T. ) ;
#112 = FACE_BOUND ( 'NONE', #162, .T. ) ;
#113 = CONICAL_SURFACE ( 'NONE', #91, 6.000000000000000000, 0.2617993877991502405 ) ;
#114 = APPROVAL ( #71, 'UNSPECIFIED' ) ;
#115 = DIRECTION ( 'NONE',  ( 3.491481338843133355E-15, -1.276467311168695266E-16, 1.000000000000000000 ) ) ;
#116 = CC_DESIGN_APPROVAL ( #24, ( #40 ) ) ;
#117 = CARTESIAN_POINT ( 'NONE',  ( 2.793185071074506684E-14, 2.249639673992780117E-32, 8.000000000000000000 ) ) ;
#118 = DIRECTION ( 'NONE',  ( 3.491481338843133355E-15, -1.224646799147353207E-16, 1.000000000000000000 ) ) ;
#119 = DIRECTION ( 'NONE',  ( 3.491481338843133355E-15, -1.276467311168695266E-16, 1.000000000000000000 ) ) ;
#120 = AXIS2_PLACEMENT_3D ( 'NONE', #134, #118, #187 ) ;
#121 = CC_DESIGN_PERSON_AND_ORGANIZATION_ASSIGNMENT ( #68, #84, ( #40 ) ) ;
#122 = PERSON_AND_ORGANIZATION ( #200, #66 ) ;
#123 = DIRECTION ( 'NONE',  ( 0.0000000000000000000, 1.000000000000000000, 0.0000000000000000000 ) ) ;
#124 = PERSON_AND_ORGANIZATION ( #200, #66 ) ;
#125 = EDGE_LOOP ( 'NONE', ( #196 ) ) ;
#126 = LOCAL_TIME ( 10, 33, 44.00000000000000000, #209 ) ;
#127 = EDGE_LOOP ( 'NONE', ( #214 ) ) ;
#128 = COORDINATED_UNIVERSAL_TIME_OFFSET ( 1, 0, .AHEAD. ) ;
#129 = FACE_OUTER_BOUND ( 'NONE', #127, .T. ) ;
#130 = EDGE_LOOP ( 'NONE', ( #26 ) ) ;
#131 =( GEOMETRIC_REPRESENTATION_CONTEXT ( 3 ) GLOBAL_UNCERTAINTY_ASSIGNED_CONTEXT ( ( #169 ) ) GLOBAL_UNIT_ASSIGNED_CONTEXT ( ( #190, #192, #35 ) ) REPRESENTATION_CONTEXT ( 'NONE', 'WORKASPACE' ) );
#132 = CC_DESIGN_PERSON_AND_ORGANIZATION_ASSIGNMENT ( #3, #11, ( #136 ) ) ;
#133 = FACE_OUTER_BOUND ( 'NONE', #27, .T. ) ;
#134 = CARTESIAN_POINT ( 'NONE',  ( 2.793185071074506684E-14, 2.249639673992780117E-32, 8.000000000000000000 ) ) ;
#135 = PLANE ( 'NONE',  #202 ) ;
#136 = PRODUCT_DEFINITION_FORMATION_WITH_SPECIFIED_SOURCE ( 'ANY', '', #159, .NOT_KNOWN. ) ;
#137 = VERTEX_POINT ( 'NONE', #100 ) ;
#138 = DIRECTION ( 'NONE',  ( -4.456761796588770537E-31, -1.000000000000000000, -1.276467311168695266E-16 ) ) ;
#139 = MECHANICAL_CONTEXT ( 'NONE', #92, 'mechanical' ) ;
#140 = DIRECTION ( 'NONE',  ( 1.000000000000000000, 0.0000000000000000000, 0.0000000000000000000 ) ) ;
#141 = AXIS2_PLACEMENT_3D ( 'NONE', #154, #17, #185 ) ;
#142 = SECURITY_CLASSIFICATION_LEVEL ( 'unclassified' ) ;
#143 = CALENDAR_DATE ( 2021, 8, 12 ) ;
#144 = CC_DESIGN_PERSON_AND_ORGANIZATION_ASSIGNMENT ( #6, #72, ( #195 ) ) ;
#145 = DIRECTION ( 'NONE',  ( 0.0000000000000000000, -1.000000000000000000, 0.0000000000000000000 ) ) ;
#146 = CARTESIAN_POINT ( 'NONE',  ( -6.413839710158237013E-31, 0.0000000000000000000, -1.836996703606440502E-16 ) ) ;
#147 = EDGE_CURVE ( 'NONE', #33, #33, #83, .T. ) ;
#148 = DIRECTION ( 'NONE',  ( -4.456761796588770537E-31, -1.000000000000000000, -1.276467311168695266E-16 ) ) ;
#149 = CONICAL_SURFACE ( 'NONE', #52, 2.400000000000000355, 0.7853981633974453924 ) ;
#150 = FACE_OUTER_BOUND ( 'NONE', #109, .T. ) ;
#151 = CC_DESIGN_PERSON_AND_ORGANIZATION_ASSIGNMENT ( #78, #37, ( #159 ) ) ;
#152 = DIRECTION ( 'NONE',  ( -3.491481338843133355E-15, 1.224646799147353207E-16, -1.000000000000000000 ) ) ;
#153 = CARTESIAN_POINT ( 'NONE',  ( 2.073939915272820834E-13, 2.999999999999992895, 59.39999999999999147 ) ) ;
#154 = CARTESIAN_POINT ( 'NONE',  ( 2.793185071074506684E-14, -1.021173848934956212E-15, 8.000000000000000000 ) ) ;
#155 = CARTESIAN_POINT ( 'NONE',  ( 2.073939915272820834E-13, -7.274401986935278213E-15, 59.39999999999999147 ) ) ;
#156 = ADVANCED_FACE ( 'NONE', ( #133 ), #64, .T. ) ;
#157 = CIRCLE ( 'NONE', #49, 0.9999999999999995559 ) ;
#158 = CARTESIAN_POINT ( 'NONE',  ( 0.0000000000000000000, 0.0000000000000000000, 0.0000000000000000000 ) ) ;
#159 = PRODUCT ( '379709', '379709', '', ( #139 ) ) ;
#160 = LOCAL_TIME ( 10, 33, 44.00000000000000000, #38 ) ;
#161 = APPROVAL_DATE_TIME ( #194, #24 ) ;
#162 = EDGE_LOOP ( 'NONE', ( #75 ) ) ;
#163 = APPLICATION_PROTOCOL_DEFINITION ( 'international standard', 'config_control_design', 1994, #31 ) ;
#164 = ADVANCED_FACE ( 'NONE', ( #29 ), #135, .F. ) ;
#165 = APPROVAL_DATE_TIME ( #179, #114 ) ;
#166 = ORIENTED_EDGE ( 'NONE', *, *, #191, .F. ) ;
#167 = CARTESIAN_POINT ( 'NONE',  ( 2.094888803305880013E-13, -7.347880794884118356E-15, 60.00000000000000000 ) ) ;
#168 = ORIENTED_EDGE ( 'NONE', *, *, #96, .F. ) ;
#169 = UNCERTAINTY_MEASURE_WITH_UNIT (LENGTH_MEASURE( 1.000000000000000082E-05 ), #190, 'distance_accuracy_value', 'NONE');
#170 = FACE_OUTER_BOUND ( 'NONE', #125, .T. ) ;
#171 = CARTESIAN_POINT ( 'NONE',  ( 2.094888803305880013E-13, 2.399999999999992806, 60.00000000000000000 ) ) ;
#172 = DIRECTION ( 'NONE',  ( 0.0000000000000000000, 1.000000000000000000, 0.0000000000000000000 ) ) ;
#173 = AXIS2_PLACEMENT_3D ( 'NONE', #117, #79, #186 ) ;
#174 = DIRECTION ( 'NONE',  ( -3.491481338843133355E-15, 1.224646799147353207E-16, -1.000000000000000000 ) ) ;
#175 = ADVANCED_FACE ( 'NONE', ( #223 ), #16, .F. ) ;
#176 = MANIFOLD_SOLID_BREP ( 'Corps-Déplacer/Copier1[1]', #80 ) ;
#177 = DIRECTION ( 'NONE',  ( 0.0000000000000000000, 0.0000000000000000000, 1.000000000000000000 ) ) ;
#178 = APPROVAL_ROLE ( '' ) ;
#179 = DATE_AND_TIME ( #213, #160 ) ;
#180 = APPROVAL_DATE_TIME ( #43, #42 ) ;
#181 = ORIENTED_EDGE ( 'NONE', *, *, #111, .T. ) ;
#182 = ORIENTED_EDGE ( 'NONE', *, *, #147, .F. ) ;
#183 = EDGE_LOOP ( 'NONE', ( #23 ) ) ;
#184 = CARTESIAN_POINT ( 'NONE',  ( 5.399262221122730834E-14, -1.973942020831432489E-15, 15.46410161513771975 ) ) ;
#185 = DIRECTION ( 'NONE',  ( 0.0000000000000000000, -1.000000000000000000, 0.0000000000000000000 ) ) ;
#186 = DIRECTION ( 'NONE',  ( -4.275831445896958607E-31, -1.000000000000000000, -1.224646799147353207E-16 ) ) ;
#187 = DIRECTION ( 'NONE',  ( -4.275831445896958607E-31, -1.000000000000000000, -1.224646799147353207E-16 ) ) ;
#188 = DIRECTION ( 'NONE',  ( 3.491481338843133355E-15, -1.224646799147353207E-16, 1.000000000000000000 ) ) ;
#189 = LOCAL_TIME ( 10, 33, 44.00000000000000000, #70 ) ;
#190 =( LENGTH_UNIT ( ) NAMED_UNIT ( * ) SI_UNIT ( .MILLI., .METRE. ) );
#191 = EDGE_CURVE ( 'NONE', #221, #221, #193, .T. ) ;
#192 =( NAMED_UNIT ( * ) PLANE_ANGLE_UNIT ( ) SI_UNIT ( $, .RADIAN. ) );
#193 = CIRCLE ( 'NONE', #206, 0.9999999999999993339 ) ;
#194 = DATE_AND_TIME ( #105, #211 ) ;
#195 = PRODUCT_DEFINITION ( 'UNKNOWN', '', #136, #101 ) ;
#196 = ORIENTED_EDGE ( 'NONE', *, *, #147, .T. ) ;
#197 = AXIS2_PLACEMENT_3D ( 'NONE', #146, #25, #148 ) ;
#198 = ORIENTED_EDGE ( 'NONE', *, *, #204, .F. ) ;
#199 = PERSON_AND_ORGANIZATION ( #200, #66 ) ;
#200 = PERSON ( 'UNSPECIFIED', 'UNSPECIFIED', 'UNSPECIFIED', ('UNSPECIFIED'), ('UNSPECIFIED'), ('UNSPECIFIED') ) ;
#201 = DIRECTION ( 'NONE',  ( -3.491481338843133355E-15, 1.224646799147353207E-16, -1.000000000000000000 ) ) ;
#202 = AXIS2_PLACEMENT_3D ( 'NONE', #99, #188, #62 ) ;
#203 = DIRECTION ( 'NONE',  ( -3.491481338843133355E-15, 1.224646799147353207E-16, -1.000000000000000000 ) ) ;
#204 = EDGE_CURVE ( 'NONE', #137, #137, #69, .T. ) ;
#205 = CARTESIAN_POINT ( 'NONE',  ( 2.793185071074506684E-14, -1.021173848934956212E-15, 8.000000000000000000 ) ) ;
#206 = AXIS2_PLACEMENT_3D ( 'NONE', #205, #115, #98 ) ;
#207 = CYLINDRICAL_SURFACE ( 'NONE', #108, 2.999999999999996447 ) ;
#208 = APPLICATION_PROTOCOL_DEFINITION ( 'international standard', 'config_control_design', 1994, #92 ) ;
#209 = COORDINATED_UNIVERSAL_TIME_OFFSET ( 1, 0, .AHEAD. ) ;
#210 = ORIENTED_EDGE ( 'NONE', *, *, #191, .T. ) ;
#211 = LOCAL_TIME ( 10, 33, 44.00000000000000000, #22 ) ;
#212 = ADVANCED_FACE ( 'NONE', ( #150 ), #219, .F. ) ;
#213 = CALENDAR_DATE ( 2021, 8, 12 ) ;
#214 = ORIENTED_EDGE ( 'NONE', *, *, #111, .F. ) ;
#215 = FACE_OUTER_BOUND ( 'NONE', #130, .T. ) ;
#216 = CARTESIAN_POINT ( 'NONE',  ( 9.308377946195077470E-14, -3.403094278676150060E-15, 26.66025403784432868 ) ) ;
#217 = AXIS2_PLACEMENT_3D ( 'NONE', #39, #201, #123 ) ;
#218 = CC_DESIGN_DATE_AND_TIME_ASSIGNMENT ( #19, #53, ( #40 ) ) ;
#219 = PLANE ( 'NONE',  #120 ) ;
#220 = DIRECTION ( 'NONE',  ( 4.275831445896958607E-31, 1.000000000000000000, 1.224646799147353207E-16 ) ) ;
#221 = VERTEX_POINT ( 'NONE', #65 ) ;
#222 = AXIS2_PLACEMENT_3D ( 'NONE', #184, #95, #76 ) ;
#223 = FACE_OUTER_BOUND ( 'NONE', #183, .T. ) ;
ENDSEC;
END-ISO-10303-21;
