ISO-10303-21;
HEADER;
FILE_DESCRIPTION (( 'STEP AP203' ),
    '1' );
FILE_NAME ('379708.step',
    '2021-12-08T09:33:43',
    ( '' ),
    ( '' ),
    'SwSTEP 2.0',
    'SolidWorks 2019',
    '' );
FILE_SCHEMA (( 'CONFIG_CONTROL_DESIGN' ));
ENDSEC;

DATA;
#1 = CARTESIAN_POINT ( 'NONE',  ( 0.0000000000000000000, 0.0000000000000000000, 0.0000000000000000000 ) ) ;
#2 = APPROVAL_PERSON_ORGANIZATION ( #167, #181, #40 ) ;
#3 = DIRECTION ( 'NONE',  ( 0.0000000000000000000, -1.000000000000000000, 0.0000000000000000000 ) ) ;
#4 =( LENGTH_UNIT ( ) NAMED_UNIT ( * ) SI_UNIT ( .MILLI., .METRE. ) );
#5 = CALENDAR_DATE ( 2021, 8, 12 ) ;
#6 = CIRCLE ( 'NONE', #26, 0.9999999999999993339 ) ;
#7 = APPROVAL_DATE_TIME ( #21, #142 ) ;
#8 = DATE_AND_TIME ( #169, #48 ) ;
#9 = CALENDAR_DATE ( 2021, 8, 12 ) ;
#10 = CYLINDRICAL_SURFACE ( 'NONE', #222, 0.9999999999999995559 ) ;
#11 = EDGE_LOOP ( 'NONE', ( #219 ) ) ;
#12 = ORIENTED_EDGE ( 'NONE', *, *, #33, .F. ) ;
#13 = CARTESIAN_POINT ( 'NONE',  ( 9.308377946195077470E-14, -3.403094278676150060E-15, 26.66025403784432868 ) ) ;
#14 = CC_DESIGN_PERSON_AND_ORGANIZATION_ASSIGNMENT ( #53, #208, ( #185 ) ) ;
#15 = DIRECTION ( 'NONE',  ( 3.491481338843133355E-15, -1.276467311168695266E-16, 1.000000000000000000 ) ) ;
#16 = DIRECTION ( 'NONE',  ( 3.491481338843133355E-15, -1.224646799147353207E-16, 1.000000000000000000 ) ) ;
#17 = CIRCLE ( 'NONE', #195, 2.000000000000003997 ) ;
#18 = EDGE_CURVE ( 'NONE', #94, #94, #161, .T. ) ;
#19 = DIRECTION ( 'NONE',  ( 3.491481338843133355E-15, -1.276467311168695266E-16, 1.000000000000000000 ) ) ;
#20 = SECURITY_CLASSIFICATION_LEVEL ( 'unclassified' ) ;
#21 = DATE_AND_TIME ( #148, #165 ) ;
#22 = AXIS2_PLACEMENT_3D ( 'NONE', #203, #146, #3 ) ;
#23 = PERSON_AND_ORGANIZATION ( #85, #63 ) ;
#24 = DIRECTION ( 'NONE',  ( 4.275831445896958607E-31, 1.000000000000000000, 1.224646799147353454E-16 ) ) ;
#25 = DIRECTION ( 'NONE',  ( -3.491481338843133355E-15, 1.224646799147353207E-16, -1.000000000000000000 ) ) ;
#26 = AXIS2_PLACEMENT_3D ( 'NONE', #66, #15, #223 ) ;
#27 = ADVANCED_FACE ( 'NONE', ( #89, #156 ), #80, .T. ) ;
#28 = EDGE_LOOP ( 'NONE', ( #200 ) ) ;
#29 = EDGE_LOOP ( 'NONE', ( #74 ) ) ;
#30 = FACE_OUTER_BOUND ( 'NONE', #221, .T. ) ;
#31 = DIRECTION ( 'NONE',  ( 0.0000000000000000000, -1.000000000000000000, 0.0000000000000000000 ) ) ;
#32 = LOCAL_TIME ( 10, 33, 43.00000000000000000, #194 ) ;
#33 = EDGE_CURVE ( 'NONE', #111, #111, #149, .T. ) ;
#34 = CARTESIAN_POINT ( 'NONE',  ( 2.080922877950507480E-13, 1.999999999999996669, 59.60000000000000142 ) ) ;
#35 = DIRECTION ( 'NONE',  ( -4.275831445896958607E-31, -1.000000000000000000, -1.224646799147353207E-16 ) ) ;
#36 = DIRECTION ( 'NONE',  ( -4.275831445896958607E-31, -1.000000000000000000, -1.224646799147353207E-16 ) ) ;
#37 = CARTESIAN_POINT ( 'NONE',  ( 2.793185071074506684E-14, 1.499759782661854324E-32, 8.000000000000000000 ) ) ;
#38 = CC_DESIGN_APPROVAL ( #142, ( #144 ) ) ;
#39 = CALENDAR_DATE ( 2021, 8, 12 ) ;
#40 = APPROVAL_ROLE ( '' ) ;
#41 = AXIS2_PLACEMENT_3D ( 'NONE', #1, #62, #129 ) ;
#42 = DIRECTION ( 'NONE',  ( -3.491481338843133355E-15, 1.224646799147353207E-16, -1.000000000000000000 ) ) ;
#43 = PERSON_AND_ORGANIZATION ( #85, #63 ) ;
#44 = DIRECTION ( 'NONE',  ( 0.0000000000000000000, 1.000000000000000000, 0.0000000000000000000 ) ) ;
#45 = ORIENTED_EDGE ( 'NONE', *, *, #61, .F. ) ;
#46 = CLOSED_SHELL ( 'NONE', ( #128, #97, #164, #27, #56 ) ) ;
#47 = CARTESIAN_POINT ( 'NONE',  ( 2.793185071074506684E-14, -1.021173848934956212E-15, 8.000000000000000000 ) ) ;
#48 = LOCAL_TIME ( 10, 33, 43.00000000000000000, #100 ) ;
#49 = FACE_OUTER_BOUND ( 'NONE', #216, .T. ) ;
#50 = CARTESIAN_POINT ( 'NONE',  ( 4.096223646098622230E-14, -2.000000000000002220, 11.73205080756886964 ) ) ;
#51 = FACE_OUTER_BOUND ( 'NONE', #11, .T. ) ;
#52 = FACE_OUTER_BOUND ( 'NONE', #124, .T. ) ;
#53 = PERSON_AND_ORGANIZATION ( #85, #63 ) ;
#54 = PERSON_AND_ORGANIZATION ( #85, #63 ) ;
#55 = AXIS2_PLACEMENT_3D ( 'NONE', #151, #42, #24 ) ;
#56 = ADVANCED_FACE ( 'NONE', ( #64 ), #158, .F. ) ;
#57 = CARTESIAN_POINT ( 'NONE',  ( -3.206893176761002567E-31, 1.124826709063587015E-32, -9.184907108292246320E-17 ) ) ;
#58 = ORIENTED_EDGE ( 'NONE', *, *, #159, .T. ) ;
#59 = APPROVAL_PERSON_ORGANIZATION ( #54, #105, #102 ) ;
#60 = DIRECTION ( 'NONE',  ( 0.0000000000000000000, 1.000000000000000000, 0.0000000000000000000 ) ) ;
#61 = EDGE_CURVE ( 'NONE', #205, #205, #191, .T. ) ;
#62 = DIRECTION ( 'NONE',  ( 0.0000000000000000000, 0.0000000000000000000, 1.000000000000000000 ) ) ;
#63 = ORGANIZATION ( 'UNSPECIFIED', 'UNSPECIFIED', '' ) ;
#64 = FACE_OUTER_BOUND ( 'NONE', #86, .T. ) ;
#65 = VERTEX_POINT ( 'NONE', #34 ) ;
#66 = CARTESIAN_POINT ( 'NONE',  ( 2.793185071074506684E-14, -1.021173848934956212E-15, 8.000000000000000000 ) ) ;
#67 = APPROVAL_STATUS ( 'not_yet_approved' ) ;
#68 = APPROVAL_STATUS ( 'not_yet_approved' ) ;
#69 = APPLICATION_CONTEXT ( 'configuration controlled 3d designs of mechanical parts and assemblies' ) ;
#70 = AXIS2_PLACEMENT_3D ( 'NONE', #13, #78, #143 ) ;
#71 = PERSON_AND_ORGANIZATION ( #85, #63 ) ;
#72 = DIRECTION ( 'NONE',  ( 3.491481338843133355E-15, -1.276467311168695266E-16, 1.000000000000000000 ) ) ;
#73 = CARTESIAN_POINT ( 'NONE',  ( 2.080922877950507480E-13, -7.298894922918224927E-15, 59.60000000000000142 ) ) ;
#74 = ORIENTED_EDGE ( 'NONE', *, *, #33, .T. ) ;
#75 = AXIS2_PLACEMENT_3D ( 'NONE', #109, #79, #60 ) ;
#76 = ORIENTED_EDGE ( 'NONE', *, *, #210, .F. ) ;
#77 = SECURITY_CLASSIFICATION ( '', '', #20 ) ;
#78 = DIRECTION ( 'NONE',  ( 3.491481338843133355E-15, -1.276467311168695266E-16, 1.000000000000000000 ) ) ;
#79 = DIRECTION ( 'NONE',  ( -3.491481338843133355E-15, 1.224646799147353207E-16, -1.000000000000000000 ) ) ;
#80 = CONICAL_SURFACE ( 'NONE', #70, 6.000000000000000000, 0.2617993877991502405 ) ;
#81 = MECHANICAL_CONTEXT ( 'NONE', #106, 'mechanical' ) ;
#82 = AXIS2_PLACEMENT_3D ( 'NONE', #166, #19, #168 ) ;
#83 = PERSON_AND_ORGANIZATION ( #85, #63 ) ;
#84 = APPROVAL_ROLE ( '' ) ;
#85 = PERSON ( 'UNSPECIFIED', 'UNSPECIFIED', 'UNSPECIFIED', ('UNSPECIFIED'), ('UNSPECIFIED'), ('UNSPECIFIED') ) ;
#86 = EDGE_LOOP ( 'NONE', ( #220 ) ) ;
#87 = CC_DESIGN_PERSON_AND_ORGANIZATION_ASSIGNMENT ( #118, #131, ( #144 ) ) ;
#88 = AXIS2_PLACEMENT_3D ( 'NONE', #57, #196, #112 ) ;
#89 = FACE_BOUND ( 'NONE', #28, .T. ) ;
#90 = DESIGN_CONTEXT ( 'detailed design', #69, 'design' ) ;
#91 = CARTESIAN_POINT ( 'NONE',  ( 2.094888803305880013E-13, 1.599999999999996314, 60.00000000000000000 ) ) ;
#92 = ADVANCED_BREP_SHAPE_REPRESENTATION ( '379708', ( #174, #103, #41 ), #114 ) ;
#93 = CARTESIAN_POINT ( 'NONE',  ( 1.776055021564818001E-31, -0.9999999999999995559, 5.086823755309817633E-17 ) ) ;
#94 = VERTEX_POINT ( 'NONE', #204 ) ;
#95 = CC_DESIGN_PERSON_AND_ORGANIZATION_ASSIGNMENT ( #43, #117, ( #144 ) ) ;
#96 = SHAPE_DEFINITION_REPRESENTATION ( #99, #92 ) ;
#97 = ADVANCED_FACE ( 'NONE', ( #172, #150 ), #215, .T. ) ;
#98 = COORDINATED_UNIVERSAL_TIME_OFFSET ( 1, 0, .AHEAD. ) ;
#99 = PRODUCT_DEFINITION_SHAPE ( 'NONE', 'NONE',  #115 ) ;
#100 = COORDINATED_UNIVERSAL_TIME_OFFSET ( 1, 0, .AHEAD. ) ;
#101 = FACE_OUTER_BOUND ( 'NONE', #179, .T. ) ;
#102 = APPROVAL_ROLE ( '' ) ;
#103 = MANIFOLD_SOLID_BREP ( 'Corps-Déplacer/Copier1[2]', #198 ) ;
#104 = COORDINATED_UNIVERSAL_TIME_OFFSET ( 1, 0, .AHEAD. ) ;
#105 = APPROVAL ( #173, 'UNSPECIFIED' ) ;
#106 = APPLICATION_CONTEXT ( 'configuration controlled 3d designs of mechanical parts and assemblies' ) ;
#107 = DIRECTION ( 'NONE',  ( 4.275831445896958607E-31, 1.000000000000000000, 1.224646799147353207E-16 ) ) ;
#108 = DIRECTION ( 'NONE',  ( 3.491481338843133355E-15, -1.276467311168695266E-16, 1.000000000000000000 ) ) ;
#109 = CARTESIAN_POINT ( 'NONE',  ( 2.094888803305880013E-13, -7.347880794884118356E-15, 60.00000000000000000 ) ) ;
#110 = LOCAL_TIME ( 10, 33, 43.00000000000000000, #171 ) ;
#111 = VERTEX_POINT ( 'NONE', #50 ) ;
#112 = DIRECTION ( 'NONE',  ( -4.275831445896958607E-31, -1.000000000000000000, -1.224646799147353207E-16 ) ) ;
#113 = CARTESIAN_POINT ( 'NONE',  ( 2.793185071074506684E-14, 1.499759782661854324E-32, 8.000000000000000000 ) ) ;
#114 =( GEOMETRIC_REPRESENTATION_CONTEXT ( 3 ) GLOBAL_UNCERTAINTY_ASSIGNED_CONTEXT ( ( #180 ) ) GLOBAL_UNIT_ASSIGNED_CONTEXT ( ( #4, #163, #157 ) ) REPRESENTATION_CONTEXT ( 'NONE', 'WORKASPACE' ) );
#115 = PRODUCT_DEFINITION ( 'UNKNOWN', '', #144, #90 ) ;
#116 = LOCAL_TIME ( 10, 33, 43.00000000000000000, #104 ) ;
#117 = PERSON_AND_ORGANIZATION_ROLE ( 'creator' ) ;
#118 = PERSON_AND_ORGANIZATION ( #85, #63 ) ;
#119 = DATE_AND_TIME ( #39, #32 ) ;
#120 = CC_DESIGN_APPROVAL ( #181, ( #115 ) ) ;
#121 = APPLICATION_PROTOCOL_DEFINITION ( 'international standard', 'config_control_design', 1994, #69 ) ;
#122 = PERSON_AND_ORGANIZATION_ROLE ( 'creator' ) ;
#123 = AXIS2_PLACEMENT_3D ( 'NONE', #37, #16, #36 ) ;
#124 = EDGE_LOOP ( 'NONE', ( #12 ) ) ;
#125 = ORIENTED_EDGE ( 'NONE', *, *, #184, .T. ) ;
#126 = CC_DESIGN_DATE_AND_TIME_ASSIGNMENT ( #119, #212, ( #115 ) ) ;
#127 = FACE_OUTER_BOUND ( 'NONE', #153, .T. ) ;
#128 = ADVANCED_FACE ( 'NONE', ( #101, #52 ), #192, .T. ) ;
#129 = DIRECTION ( 'NONE',  ( 1.000000000000000000, 0.0000000000000000000, 0.0000000000000000000 ) ) ;
#130 = APPROVAL_DATE_TIME ( #8, #181 ) ;
#131 = PERSON_AND_ORGANIZATION_ROLE ( 'design_supplier' ) ;
#132 = CC_DESIGN_PERSON_AND_ORGANIZATION_ASSIGNMENT ( #71, #122, ( #115 ) ) ;
#133 = APPROVAL_PERSON_ORGANIZATION ( #83, #142, #84 ) ;
#134 = DIRECTION ( 'NONE',  ( -3.491481338843133355E-15, 1.224646799147353207E-16, -1.000000000000000000 ) ) ;
#135 = CC_DESIGN_DATE_AND_TIME_ASSIGNMENT ( #193, #214, ( #77 ) ) ;
#136 = PLANE ( 'NONE',  #88 ) ;
#137 = DIRECTION ( 'NONE',  ( -4.456761796588770537E-31, -1.000000000000000000, -1.276467311168695266E-16 ) ) ;
#138 = FACE_OUTER_BOUND ( 'NONE', #140, .T. ) ;
#139 = ORIENTED_EDGE ( 'NONE', *, *, #184, .F. ) ;
#140 = EDGE_LOOP ( 'NONE', ( #139 ) ) ;
#141 = AXIS2_PLACEMENT_3D ( 'NONE', #218, #134, #107 ) ;
#142 = APPROVAL ( #67, 'UNSPECIFIED' ) ;
#143 = DIRECTION ( 'NONE',  ( 0.0000000000000000000, -1.000000000000000000, 0.0000000000000000000 ) ) ;
#144 = PRODUCT_DEFINITION_FORMATION_WITH_SPECIFIED_SOURCE ( 'ANY', '', #185, .NOT_KNOWN. ) ;
#145 = APPLICATION_PROTOCOL_DEFINITION ( 'international standard', 'config_control_design', 1994, #106 ) ;
#146 = DIRECTION ( 'NONE',  ( -3.491481338843133355E-15, 1.276467311168695266E-16, -1.000000000000000000 ) ) ;
#147 = CARTESIAN_POINT ( 'NONE',  ( 2.793185071074506684E-14, -1.000000000000000444, 8.000000000000000000 ) ) ;
#148 = CALENDAR_DATE ( 2021, 8, 12 ) ;
#149 = CIRCLE ( 'NONE', #22, 2.000000000000000888 ) ;
#150 = FACE_BOUND ( 'NONE', #177, .T. ) ;
#151 = CARTESIAN_POINT ( 'NONE',  ( 0.0000000000000000000, 0.0000000000000000000, 0.0000000000000000000 ) ) ;
#152 = AXIS2_PLACEMENT_3D ( 'NONE', #113, #183, #35 ) ;
#153 = EDGE_LOOP ( 'NONE', ( #176 ) ) ;
#154 = CARTESIAN_POINT ( 'NONE',  ( -6.413839710158237013E-31, 0.0000000000000000000, -1.836996703606440502E-16 ) ) ;
#155 = EDGE_LOOP ( 'NONE', ( #197 ) ) ;
#156 = FACE_OUTER_BOUND ( 'NONE', #29, .T. ) ;
#157 =( NAMED_UNIT ( * ) SI_UNIT ( $, .STERADIAN. ) SOLID_ANGLE_UNIT ( ) );
#158 = PLANE ( 'NONE',  #152 ) ;
#159 = EDGE_CURVE ( 'NONE', #65, #65, #17, .T. ) ;
#160 = PRODUCT_RELATED_PRODUCT_CATEGORY ( 'detail', '', ( #185 ) ) ;
#161 = CIRCLE ( 'NONE', #217, 0.9999999999999993339 ) ;
#162 = VERTEX_POINT ( 'NONE', #91 ) ;
#163 =( NAMED_UNIT ( * ) PLANE_ANGLE_UNIT ( ) SI_UNIT ( $, .RADIAN. ) );
#164 = ADVANCED_FACE ( 'NONE', ( #138 ), #178, .F. ) ;
#165 = LOCAL_TIME ( 10, 33, 43.00000000000000000, #98 ) ;
#166 = CARTESIAN_POINT ( 'NONE',  ( 6.232816818153587444E-31, -4.623551463493444536E-32, 1.785149686699676536E-16 ) ) ;
#167 = PERSON_AND_ORGANIZATION ( #85, #63 ) ;
#168 = DIRECTION ( 'NONE',  ( -4.456761796588770537E-31, -1.000000000000000000, -1.276467311168695266E-16 ) ) ;
#169 = CALENDAR_DATE ( 2021, 8, 12 ) ;
#170 = APPROVAL_DATE_TIME ( #189, #105 ) ;
#171 = COORDINATED_UNIVERSAL_TIME_OFFSET ( 1, 0, .AHEAD. ) ;
#172 = FACE_OUTER_BOUND ( 'NONE', #155, .T. ) ;
#173 = APPROVAL_STATUS ( 'not_yet_approved' ) ;
#174 = MANIFOLD_SOLID_BREP ( 'Corps-Déplacer/Copier1[1]', #46 ) ;
#175 = CC_DESIGN_SECURITY_CLASSIFICATION ( #77, ( #144 ) ) ;
#176 = ORIENTED_EDGE ( 'NONE', *, *, #61, .T. ) ;
#177 = EDGE_LOOP ( 'NONE', ( #125 ) ) ;
#178 = PLANE ( 'NONE',  #141 ) ;
#179 = EDGE_LOOP ( 'NONE', ( #58 ) ) ;
#180 = UNCERTAINTY_MEASURE_WITH_UNIT (LENGTH_MEASURE( 1.000000000000000082E-05 ), #4, 'distance_accuracy_value', 'NONE');
#181 = APPROVAL ( #68, 'UNSPECIFIED' ) ;
#182 = VERTEX_POINT ( 'NONE', #147 ) ;
#183 = DIRECTION ( 'NONE',  ( 3.491481338843133355E-15, -1.224646799147353207E-16, 1.000000000000000000 ) ) ;
#184 = EDGE_CURVE ( 'NONE', #162, #162, #187, .T. ) ;
#185 = PRODUCT ( '379708', '379708', '', ( #81 ) ) ;
#186 = DIRECTION ( 'NONE',  ( 0.0000000000000000000, 1.000000000000000000, 0.0000000000000000000 ) ) ;
#187 = CIRCLE ( 'NONE', #75, 1.600000000000003864 ) ;
#188 = DIRECTION ( 'NONE',  ( -3.491481338843133355E-15, 1.224646799147353207E-16, -1.000000000000000000 ) ) ;
#189 = DATE_AND_TIME ( #9, #110 ) ;
#190 = CARTESIAN_POINT ( 'NONE',  ( 2.094888803305880013E-13, -7.347880794884118356E-15, 60.00000000000000000 ) ) ;
#191 = CIRCLE ( 'NONE', #82, 0.9999999999999995559 ) ;
#192 = CYLINDRICAL_SURFACE ( 'NONE', #55, 2.000000000000000888 ) ;
#193 = DATE_AND_TIME ( #5, #116 ) ;
#194 = COORDINATED_UNIVERSAL_TIME_OFFSET ( 1, 0, .AHEAD. ) ;
#195 = AXIS2_PLACEMENT_3D ( 'NONE', #73, #25, #44 ) ;
#196 = DIRECTION ( 'NONE',  ( 3.491481338843133355E-15, -1.224646799147353207E-16, 1.000000000000000000 ) ) ;
#197 = ORIENTED_EDGE ( 'NONE', *, *, #159, .F. ) ;
#198 = CLOSED_SHELL ( 'NONE', ( #213, #202, #209 ) ) ;
#199 = CC_DESIGN_PERSON_AND_ORGANIZATION_ASSIGNMENT ( #23, #211, ( #77 ) ) ;
#200 = ORIENTED_EDGE ( 'NONE', *, *, #18, .T. ) ;
#201 = AXIS2_PLACEMENT_3D ( 'NONE', #190, #188, #186 ) ;
#202 = ADVANCED_FACE ( 'NONE', ( #127, #49 ), #10, .T. ) ;
#203 = CARTESIAN_POINT ( 'NONE',  ( 4.096223646098622230E-14, -1.497557934883195534E-15, 11.73205080756886964 ) ) ;
#204 = CARTESIAN_POINT ( 'NONE',  ( 2.793185071074506684E-14, -1.000000000000000444, 8.000000000000000000 ) ) ;
#205 = VERTEX_POINT ( 'NONE', #93 ) ;
#206 = PLANE ( 'NONE',  #123 ) ;
#207 = CC_DESIGN_APPROVAL ( #105, ( #77 ) ) ;
#208 = PERSON_AND_ORGANIZATION_ROLE ( 'design_owner' ) ;
#209 = ADVANCED_FACE ( 'NONE', ( #30 ), #136, .F. ) ;
#210 = EDGE_CURVE ( 'NONE', #182, #182, #6, .T. ) ;
#211 = PERSON_AND_ORGANIZATION_ROLE ( 'classification_officer' ) ;
#212 = DATE_TIME_ROLE ( 'creation_date' ) ;
#213 = ADVANCED_FACE ( 'NONE', ( #51 ), #206, .T. ) ;
#214 = DATE_TIME_ROLE ( 'classification_date' ) ;
#215 = CONICAL_SURFACE ( 'NONE', #201, 1.600000000000003864, 0.7853981633974516097 ) ;
#216 = EDGE_LOOP ( 'NONE', ( #76 ) ) ;
#217 = AXIS2_PLACEMENT_3D ( 'NONE', #47, #108, #31 ) ;
#218 = CARTESIAN_POINT ( 'NONE',  ( 2.094888803305880013E-13, 1.199807826129477876E-32, 60.00000000000000000 ) ) ;
#219 = ORIENTED_EDGE ( 'NONE', *, *, #210, .T. ) ;
#220 = ORIENTED_EDGE ( 'NONE', *, *, #18, .F. ) ;
#221 = EDGE_LOOP ( 'NONE', ( #45 ) ) ;
#222 = AXIS2_PLACEMENT_3D ( 'NONE', #154, #72, #137 ) ;
#223 = DIRECTION ( 'NONE',  ( 0.0000000000000000000, -1.000000000000000000, 0.0000000000000000000 ) ) ;
ENDSEC;
END-ISO-10303-21;
