ISO-10303-21;
HEADER;
FILE_DESCRIPTION (( 'STEP AP203' ),
    '1' );
FILE_NAME ('379707.step',
    '2021-12-08T09:33:43',
    ( '' ),
    ( '' ),
    'SwSTEP 2.0',
    'SolidWorks 2019',
    '' );
FILE_SCHEMA (( 'CONFIG_CONTROL_DESIGN' ));
ENDSEC;

DATA;
#1 =( NAMED_UNIT ( * ) SI_UNIT ( $, .STERADIAN. ) SOLID_ANGLE_UNIT ( ) );
#2 = EDGE_CURVE ( 'NONE', #206, #206, #7, .T. ) ;
#3 = PERSON_AND_ORGANIZATION ( #92, #151 ) ;
#4 = ORIENTED_EDGE ( 'NONE', *, *, #205, .T. ) ;
#5 = DATE_TIME_ROLE ( 'classification_date' ) ;
#6 = LOCAL_TIME ( 10, 33, 43.00000000000000000, #173 ) ;
#7 = CIRCLE ( 'NONE', #38, 0.9999999999999993339 ) ;
#8 = CARTESIAN_POINT ( 'NONE',  ( 1.047444401652940007E-13, -3.673940397442059178E-15, 30.00000000000000000 ) ) ;
#9 = DIRECTION ( 'NONE',  ( 0.0000000000000000000, -1.000000000000000000, 0.0000000000000000000 ) ) ;
#10 = FACE_OUTER_BOUND ( 'NONE', #167, .T. ) ;
#11 = CARTESIAN_POINT ( 'NONE',  ( 1.047444401652940007E-13, 8.998558695971044381E-33, 30.00000000000000000 ) ) ;
#12 = DIRECTION ( 'NONE',  ( -4.275831445896958607E-31, -1.000000000000000000, -1.224646799147353207E-16 ) ) ;
#13 = DATE_AND_TIME ( #53, #20 ) ;
#14 = CIRCLE ( 'NONE', #155, 1.499999999999992450 ) ;
#15 = CC_DESIGN_PERSON_AND_ORGANIZATION_ASSIGNMENT ( #73, #192, ( #144 ) ) ;
#16 = PERSON_AND_ORGANIZATION ( #92, #151 ) ;
#17 = LOCAL_TIME ( 10, 33, 43.00000000000000000, #220 ) ;
#18 = DIRECTION ( 'NONE',  ( 1.000000000000000000, 0.0000000000000000000, 0.0000000000000000000 ) ) ;
#19 = PERSON_AND_ORGANIZATION_ROLE ( 'creator' ) ;
#20 = LOCAL_TIME ( 10, 33, 43.00000000000000000, #207 ) ;
#21 = ADVANCED_FACE ( 'NONE', ( #143 ), #122, .F. ) ;
#22 = ORIENTED_EDGE ( 'NONE', *, *, #125, .T. ) ;
#23 = ORIENTED_EDGE ( 'NONE', *, *, #99, .T. ) ;
#24 = FACE_BOUND ( 'NONE', #74, .T. ) ;
#25 = FACE_BOUND ( 'NONE', #138, .T. ) ;
#26 = AXIS2_PLACEMENT_3D ( 'NONE', #43, #160, #215 ) ;
#27 = CARTESIAN_POINT ( 'NONE',  ( 6.232816818153587444E-31, -4.623551463493444536E-32, 1.785149686699676536E-16 ) ) ;
#28 = CARTESIAN_POINT ( 'NONE',  ( 1.047444401652940007E-13, -3.673940397442059178E-15, 30.00000000000000000 ) ) ;
#29 = DIRECTION ( 'NONE',  ( 4.275831445896958607E-31, 1.000000000000000000, 1.224646799147353207E-16 ) ) ;
#30 = APPLICATION_PROTOCOL_DEFINITION ( 'international standard', 'config_control_design', 1994, #37 ) ;
#31 = CARTESIAN_POINT ( 'NONE',  ( 2.793185071074506684E-14, -1.000000000000000444, 8.000000000000000000 ) ) ;
#32 = SECURITY_CLASSIFICATION_LEVEL ( 'unclassified' ) ;
#33 = CARTESIAN_POINT ( 'NONE',  ( 1.036969957636410417E-13, 1.499999999999990008, 29.69999999999999574 ) ) ;
#34 = AXIS2_PLACEMENT_3D ( 'NONE', #196, #107, #64 ) ;
#35 = CC_DESIGN_DATE_AND_TIME_ASSIGNMENT ( #181, #51, ( #44 ) ) ;
#36 = VERTEX_POINT ( 'NONE', #33 ) ;
#37 = APPLICATION_CONTEXT ( 'configuration controlled 3d designs of mechanical parts and assemblies' ) ;
#38 = AXIS2_PLACEMENT_3D ( 'NONE', #57, #174, #65 ) ;
#39 = APPROVAL_PERSON_ORGANIZATION ( #135, #211, #111 ) ;
#40 = EDGE_LOOP ( 'NONE', ( #75 ) ) ;
#41 = CYLINDRICAL_SURFACE ( 'NONE', #26, 0.9999999999999995559 ) ;
#42 = DIRECTION ( 'NONE',  ( -3.491481338843133355E-15, 1.224646799147353207E-16, -1.000000000000000000 ) ) ;
#43 = CARTESIAN_POINT ( 'NONE',  ( -6.413839710158237013E-31, 0.0000000000000000000, -1.836996703606440502E-16 ) ) ;
#44 = PRODUCT_DEFINITION ( 'UNKNOWN', '', #198, #98 ) ;
#45 = DIRECTION ( 'NONE',  ( -4.275831445896958607E-31, -1.000000000000000000, -1.224646799147353207E-16 ) ) ;
#46 = FACE_OUTER_BOUND ( 'NONE', #175, .T. ) ;
#47 = DIRECTION ( 'NONE',  ( 0.0000000000000000000, 0.0000000000000000000, 1.000000000000000000 ) ) ;
#48 = PERSON_AND_ORGANIZATION_ROLE ( 'creator' ) ;
#49 = APPROVAL_PERSON_ORGANIZATION ( #3, #83, #137 ) ;
#50 = ORIENTED_EDGE ( 'NONE', *, *, #205, .F. ) ;
#51 = DATE_TIME_ROLE ( 'creation_date' ) ;
#52 = UNCERTAINTY_MEASURE_WITH_UNIT (LENGTH_MEASURE( 1.000000000000000082E-05 ), #223, 'distance_accuracy_value', 'NONE');
#53 = CALENDAR_DATE ( 2021, 8, 12 ) ;
#54 = APPROVAL_DATE_TIME ( #13, #211 ) ;
#55 = ADVANCED_FACE ( 'NONE', ( #195 ), #81, .F. ) ;
#56 = ORIENTED_EDGE ( 'NONE', *, *, #63, .T. ) ;
#57 = CARTESIAN_POINT ( 'NONE',  ( 2.793185071074506684E-14, -1.021173848934956212E-15, 8.000000000000000000 ) ) ;
#58 = AXIS2_PLACEMENT_3D ( 'NONE', #8, #91, #106 ) ;
#59 = CC_DESIGN_APPROVAL ( #211, ( #44 ) ) ;
#60 = CALENDAR_DATE ( 2021, 8, 12 ) ;
#61 = ORIENTED_EDGE ( 'NONE', *, *, #2, .T. ) ;
#62 = CYLINDRICAL_SURFACE ( 'NONE', #118, 1.499999999999992450 ) ;
#63 = EDGE_CURVE ( 'NONE', #36, #36, #172, .T. ) ;
#64 = DIRECTION ( 'NONE',  ( -4.275831445896958607E-31, -1.000000000000000000, -1.224646799147353207E-16 ) ) ;
#65 = DIRECTION ( 'NONE',  ( 0.0000000000000000000, -1.000000000000000000, 0.0000000000000000000 ) ) ;
#66 = PERSON_AND_ORGANIZATION_ROLE ( 'design_owner' ) ;
#67 = CARTESIAN_POINT ( 'NONE',  ( 3.444704358586554675E-14, -1.499999999999993783, 9.866025403784405512 ) ) ;
#68 = CC_DESIGN_SECURITY_CLASSIFICATION ( #144, ( #198 ) ) ;
#69 = CARTESIAN_POINT ( 'NONE',  ( 2.793185071074506684E-14, -1.000000000000000444, 8.000000000000000000 ) ) ;
#70 = APPROVAL ( #202, 'UNSPECIFIED' ) ;
#71 = CARTESIAN_POINT ( 'NONE',  ( 0.0000000000000000000, 0.0000000000000000000, 0.0000000000000000000 ) ) ;
#72 = APPROVAL_STATUS ( 'not_yet_approved' ) ;
#73 = PERSON_AND_ORGANIZATION ( #92, #151 ) ;
#74 = EDGE_LOOP ( 'NONE', ( #61 ) ) ;
#75 = ORIENTED_EDGE ( 'NONE', *, *, #99, .F. ) ;
#76 = FACE_OUTER_BOUND ( 'NONE', #156, .T. ) ;
#77 = CARTESIAN_POINT ( 'NONE',  ( -1.282754905350004938E-30, 4.499298539707957223E-32, -3.673956068672652843E-16 ) ) ;
#78 = CARTESIAN_POINT ( 'NONE',  ( 2.793185071074506684E-14, -1.021173848934956212E-15, 8.000000000000000000 ) ) ;
#79 = CARTESIAN_POINT ( 'NONE',  ( 0.0000000000000000000, 0.0000000000000000000, 0.0000000000000000000 ) ) ;
#80 = AXIS2_PLACEMENT_3D ( 'NONE', #71, #47, #18 ) ;
#81 = PLANE ( 'NONE',  #183 ) ;
#82 = MECHANICAL_CONTEXT ( 'NONE', #37, 'mechanical' ) ;
#83 = APPROVAL ( #72, 'UNSPECIFIED' ) ;
#84 = COORDINATED_UNIVERSAL_TIME_OFFSET ( 1, 0, .AHEAD. ) ;
#85 = COORDINATED_UNIVERSAL_TIME_OFFSET ( 1, 0, .AHEAD. ) ;
#86 = AXIS2_PLACEMENT_3D ( 'NONE', #78, #176, #9 ) ;
#87 = EDGE_LOOP ( 'NONE', ( #4 ) ) ;
#88 = DIRECTION ( 'NONE',  ( -4.456761796588770537E-31, -1.000000000000000000, -1.276467311168695266E-16 ) ) ;
#89 = PRODUCT ( '379707', '379707', '', ( #82 ) ) ;
#90 = MANIFOLD_SOLID_BREP ( 'Corps-Déplacer/Copier1[2]', #170 ) ;
#91 = DIRECTION ( 'NONE',  ( -3.491481338843133355E-15, 1.224646799147353207E-16, -1.000000000000000000 ) ) ;
#92 = PERSON ( 'UNSPECIFIED', 'UNSPECIFIED', 'UNSPECIFIED', ('UNSPECIFIED'), ('UNSPECIFIED'), ('UNSPECIFIED') ) ;
#93 = FACE_OUTER_BOUND ( 'NONE', #169, .T. ) ;
#94 = DIRECTION ( 'NONE',  ( 3.491481338843133355E-15, -1.224646799147353207E-16, 1.000000000000000000 ) ) ;
#95 = FACE_OUTER_BOUND ( 'NONE', #101, .T. ) ;
#96 = AXIS2_PLACEMENT_3D ( 'NONE', #27, #194, #88 ) ;
#97 = VERTEX_POINT ( 'NONE', #133 ) ;
#98 = DESIGN_CONTEXT ( 'detailed design', #168, 'design' ) ;
#99 = EDGE_CURVE ( 'NONE', #221, #221, #129, .T. ) ;
#100 = ORIENTED_EDGE ( 'NONE', *, *, #63, .F. ) ;
#101 = EDGE_LOOP ( 'NONE', ( #56 ) ) ;
#102 = LOCAL_TIME ( 10, 33, 43.00000000000000000, #85 ) ;
#103 = SHAPE_DEFINITION_REPRESENTATION ( #216, #131 ) ;
#104 = DIRECTION ( 'NONE',  ( -3.491481338843133355E-15, 1.224646799147353207E-16, -1.000000000000000000 ) ) ;
#105 = AXIS2_PLACEMENT_3D ( 'NONE', #128, #94, #12 ) ;
#106 = DIRECTION ( 'NONE',  ( 0.0000000000000000000, 1.000000000000000000, 0.0000000000000000000 ) ) ;
#107 = DIRECTION ( 'NONE',  ( 3.491481338843133355E-15, -1.224646799147353207E-16, 1.000000000000000000 ) ) ;
#108 = CIRCLE ( 'NONE', #86, 0.9999999999999993339 ) ;
#109 = DIRECTION ( 'NONE',  ( 0.0000000000000000000, 1.000000000000000000, 0.0000000000000000000 ) ) ;
#110 = ADVANCED_FACE ( 'NONE', ( #93 ), #147, .F. ) ;
#111 = APPROVAL_ROLE ( '' ) ;
#112 =( GEOMETRIC_REPRESENTATION_CONTEXT ( 3 ) GLOBAL_UNCERTAINTY_ASSIGNED_CONTEXT ( ( #52 ) ) GLOBAL_UNIT_ASSIGNED_CONTEXT ( ( #223, #184, #1 ) ) REPRESENTATION_CONTEXT ( 'NONE', 'WORKASPACE' ) );
#113 = PERSON_AND_ORGANIZATION ( #92, #151 ) ;
#114 = PERSON_AND_ORGANIZATION_ROLE ( 'design_supplier' ) ;
#115 = DATE_AND_TIME ( #203, #17 ) ;
#116 = CARTESIAN_POINT ( 'NONE',  ( 1.776055021564818001E-31, -0.9999999999999995559, 5.086823755309817633E-17 ) ) ;
#117 = ORIENTED_EDGE ( 'NONE', *, *, #132, .T. ) ;
#118 = AXIS2_PLACEMENT_3D ( 'NONE', #79, #42, #124 ) ;
#119 = CONICAL_SURFACE ( 'NONE', #126, 6.000000000000000000, 0.2617993877991502405 ) ;
#120 = CC_DESIGN_DATE_AND_TIME_ASSIGNMENT ( #154, #5, ( #144 ) ) ;
#121 = DATE_AND_TIME ( #139, #6 ) ;
#122 = PLANE ( 'NONE',  #105 ) ;
#123 = FACE_OUTER_BOUND ( 'NONE', #87, .T. ) ;
#124 = DIRECTION ( 'NONE',  ( 4.275831445896958607E-31, 1.000000000000000000, 1.224646799147353207E-16 ) ) ;
#125 = EDGE_CURVE ( 'NONE', #222, #222, #14, .T. ) ;
#126 = AXIS2_PLACEMENT_3D ( 'NONE', #178, #197, #179 ) ;
#127 = PRODUCT_RELATED_PRODUCT_CATEGORY ( 'detail', '', ( #89 ) ) ;
#128 = CARTESIAN_POINT ( 'NONE',  ( 2.793185071074506684E-14, 1.124819836996384995E-32, 8.000000000000000000 ) ) ;
#129 = CIRCLE ( 'NONE', #96, 0.9999999999999995559 ) ;
#130 = VERTEX_POINT ( 'NONE', #69 ) ;
#131 = ADVANCED_BREP_SHAPE_REPRESENTATION ( '379707', ( #148, #90, #80 ), #112 ) ;
#132 = EDGE_CURVE ( 'NONE', #97, #97, #165, .T. ) ;
#133 = CARTESIAN_POINT ( 'NONE',  ( 1.047444401652940007E-13, 1.199999999999990186, 30.00000000000000000 ) ) ;
#134 = APPROVAL_DATE_TIME ( #115, #70 ) ;
#135 = PERSON_AND_ORGANIZATION ( #92, #151 ) ;
#136 = CC_DESIGN_PERSON_AND_ORGANIZATION_ASSIGNMENT ( #16, #66, ( #89 ) ) ;
#137 = APPROVAL_ROLE ( '' ) ;
#138 = EDGE_LOOP ( 'NONE', ( #117 ) ) ;
#139 = CALENDAR_DATE ( 2021, 8, 12 ) ;
#140 = ORIENTED_EDGE ( 'NONE', *, *, #132, .F. ) ;
#141 = EDGE_LOOP ( 'NONE', ( #158 ) ) ;
#142 = ADVANCED_FACE ( 'NONE', ( #95, #46 ), #62, .T. ) ;
#143 = FACE_OUTER_BOUND ( 'NONE', #141, .T. ) ;
#144 = SECURITY_CLASSIFICATION ( '', '', #32 ) ;
#145 = DIRECTION ( 'NONE',  ( -3.491481338843133355E-15, 1.276467311168695266E-16, -1.000000000000000000 ) ) ;
#146 = DIRECTION ( 'NONE',  ( 3.491481338843133355E-15, -1.224646799147353207E-16, 1.000000000000000000 ) ) ;
#147 = PLANE ( 'NONE',  #185 ) ;
#148 = MANIFOLD_SOLID_BREP ( 'Corps-Déplacer/Copier1[1]', #200 ) ;
#149 = APPROVAL_ROLE ( '' ) ;
#150 = CALENDAR_DATE ( 2021, 8, 12 ) ;
#151 = ORGANIZATION ( 'UNSPECIFIED', 'UNSPECIFIED', '' ) ;
#152 = CC_DESIGN_PERSON_AND_ORGANIZATION_ASSIGNMENT ( #171, #19, ( #44 ) ) ;
#153 = PERSON_AND_ORGANIZATION ( #92, #151 ) ;
#154 = DATE_AND_TIME ( #60, #102 ) ;
#155 = AXIS2_PLACEMENT_3D ( 'NONE', #217, #145, #214 ) ;
#156 = EDGE_LOOP ( 'NONE', ( #22 ) ) ;
#157 = LOCAL_TIME ( 10, 33, 43.00000000000000000, #84 ) ;
#158 = ORIENTED_EDGE ( 'NONE', *, *, #2, .F. ) ;
#159 = DIRECTION ( 'NONE',  ( -3.491481338843133355E-15, 1.224646799147353207E-16, -1.000000000000000000 ) ) ;
#160 = DIRECTION ( 'NONE',  ( 3.491481338843133355E-15, -1.276467311168695266E-16, 1.000000000000000000 ) ) ;
#161 = CC_DESIGN_APPROVAL ( #83, ( #144 ) ) ;
#162 = ADVANCED_FACE ( 'NONE', ( #177, #25 ), #193, .T. ) ;
#163 = DIRECTION ( 'NONE',  ( 0.0000000000000000000, 1.000000000000000000, 0.0000000000000000000 ) ) ;
#164 = PLANE ( 'NONE',  #34 ) ;
#165 = CIRCLE ( 'NONE', #188, 1.199999999999993738 ) ;
#166 = APPROVAL_STATUS ( 'not_yet_approved' ) ;
#167 = EDGE_LOOP ( 'NONE', ( #23 ) ) ;
#168 = APPLICATION_CONTEXT ( 'configuration controlled 3d designs of mechanical parts and assemblies' ) ;
#169 = EDGE_LOOP ( 'NONE', ( #140 ) ) ;
#170 = CLOSED_SHELL ( 'NONE', ( #210, #201, #55 ) ) ;
#171 = PERSON_AND_ORGANIZATION ( #92, #151 ) ;
#172 = CIRCLE ( 'NONE', #190, 1.499999999999993783 ) ;
#173 = COORDINATED_UNIVERSAL_TIME_OFFSET ( 1, 0, .AHEAD. ) ;
#174 = DIRECTION ( 'NONE',  ( 3.491481338843133355E-15, -1.276467311168695266E-16, 1.000000000000000000 ) ) ;
#175 = EDGE_LOOP ( 'NONE', ( #189 ) ) ;
#176 = DIRECTION ( 'NONE',  ( 3.491481338843133355E-15, -1.276467311168695266E-16, 1.000000000000000000 ) ) ;
#177 = FACE_OUTER_BOUND ( 'NONE', #212, .T. ) ;
#178 = CARTESIAN_POINT ( 'NONE',  ( 9.308377946195077470E-14, -3.403094278676150060E-15, 26.66025403784432868 ) ) ;
#179 = DIRECTION ( 'NONE',  ( 0.0000000000000000000, -1.000000000000000000, 0.0000000000000000000 ) ) ;
#180 = FACE_OUTER_BOUND ( 'NONE', #209, .T. ) ;
#181 = DATE_AND_TIME ( #150, #157 ) ;
#182 = APPLICATION_PROTOCOL_DEFINITION ( 'international standard', 'config_control_design', 1994, #168 ) ;
#183 = AXIS2_PLACEMENT_3D ( 'NONE', #77, #146, #45 ) ;
#184 =( NAMED_UNIT ( * ) PLANE_ANGLE_UNIT ( ) SI_UNIT ( $, .RADIAN. ) );
#185 = AXIS2_PLACEMENT_3D ( 'NONE', #11, #219, #29 ) ;
#186 = CC_DESIGN_PERSON_AND_ORGANIZATION_ASSIGNMENT ( #113, #114, ( #198 ) ) ;
#187 = APPROVAL_DATE_TIME ( #121, #83 ) ;
#188 = AXIS2_PLACEMENT_3D ( 'NONE', #28, #159, #109 ) ;
#189 = ORIENTED_EDGE ( 'NONE', *, *, #125, .F. ) ;
#190 = AXIS2_PLACEMENT_3D ( 'NONE', #199, #104, #163 ) ;
#191 = CC_DESIGN_PERSON_AND_ORGANIZATION_ASSIGNMENT ( #204, #48, ( #198 ) ) ;
#192 = PERSON_AND_ORGANIZATION_ROLE ( 'classification_officer' ) ;
#193 = CONICAL_SURFACE ( 'NONE', #58, 1.199999999999993738, 0.7853981633974453924 ) ;
#194 = DIRECTION ( 'NONE',  ( 3.491481338843133355E-15, -1.276467311168695266E-16, 1.000000000000000000 ) ) ;
#195 = FACE_OUTER_BOUND ( 'NONE', #40, .T. ) ;
#196 = CARTESIAN_POINT ( 'NONE',  ( 2.793185071074506684E-14, 1.124819836996384995E-32, 8.000000000000000000 ) ) ;
#197 = DIRECTION ( 'NONE',  ( 3.491481338843133355E-15, -1.276467311168695266E-16, 1.000000000000000000 ) ) ;
#198 = PRODUCT_DEFINITION_FORMATION_WITH_SPECIFIED_SOURCE ( 'ANY', '', #89, .NOT_KNOWN. ) ;
#199 = CARTESIAN_POINT ( 'NONE',  ( 1.036969957636410417E-13, -3.637200993467639107E-15, 29.69999999999999574 ) ) ;
#200 = CLOSED_SHELL ( 'NONE', ( #142, #162, #110, #218, #21 ) ) ;
#201 = ADVANCED_FACE ( 'NONE', ( #10, #180 ), #41, .T. ) ;
#202 = APPROVAL_STATUS ( 'not_yet_approved' ) ;
#203 = CALENDAR_DATE ( 2021, 8, 12 ) ;
#204 = PERSON_AND_ORGANIZATION ( #92, #151 ) ;
#205 = EDGE_CURVE ( 'NONE', #130, #130, #108, .T. ) ;
#206 = VERTEX_POINT ( 'NONE', #31 ) ;
#207 = COORDINATED_UNIVERSAL_TIME_OFFSET ( 1, 0, .AHEAD. ) ;
#208 = CC_DESIGN_APPROVAL ( #70, ( #198 ) ) ;
#209 = EDGE_LOOP ( 'NONE', ( #50 ) ) ;
#210 = ADVANCED_FACE ( 'NONE', ( #123 ), #164, .T. ) ;
#211 = APPROVAL ( #166, 'UNSPECIFIED' ) ;
#212 = EDGE_LOOP ( 'NONE', ( #100 ) ) ;
#213 = APPROVAL_PERSON_ORGANIZATION ( #153, #70, #149 ) ;
#214 = DIRECTION ( 'NONE',  ( 0.0000000000000000000, -1.000000000000000000, 0.0000000000000000000 ) ) ;
#215 = DIRECTION ( 'NONE',  ( -4.456761796588770537E-31, -1.000000000000000000, -1.276467311168695266E-16 ) ) ;
#216 = PRODUCT_DEFINITION_SHAPE ( 'NONE', 'NONE',  #44 ) ;
#217 = CARTESIAN_POINT ( 'NONE',  ( 3.444704358586554675E-14, -1.259365891909072126E-15, 9.866025403784405512 ) ) ;
#218 = ADVANCED_FACE ( 'NONE', ( #24, #76 ), #119, .T. ) ;
#219 = DIRECTION ( 'NONE',  ( -3.491481338843133355E-15, 1.224646799147353207E-16, -1.000000000000000000 ) ) ;
#220 = COORDINATED_UNIVERSAL_TIME_OFFSET ( 1, 0, .AHEAD. ) ;
#221 = VERTEX_POINT ( 'NONE', #116 ) ;
#222 = VERTEX_POINT ( 'NONE', #67 ) ;
#223 =( LENGTH_UNIT ( ) NAMED_UNIT ( * ) SI_UNIT ( .MILLI., .METRE. ) );
ENDSEC;
END-ISO-10303-21;
