ISO-10303-21;
HEADER;
FILE_DESCRIPTION (( 'STEP AP203' ),
    '1' );
FILE_NAME ('379706.step',
    '2021-12-08T09:33:42',
    ( '' ),
    ( '' ),
    'SwSTEP 2.0',
    'SolidWorks 2019',
    '' );
FILE_SCHEMA (( 'CONFIG_CONTROL_DESIGN' ));
ENDSEC;

DATA;
#1 = ADVANCED_FACE ( 'NONE', ( #32 ), #146, .F. ) ;
#2 = PERSON_AND_ORGANIZATION ( #5, #140 ) ;
#3 = CC_DESIGN_PERSON_AND_ORGANIZATION_ASSIGNMENT ( #62, #20, ( #123 ) ) ;
#4 = EDGE_LOOP ( 'NONE', ( #196 ) ) ;
#5 = PERSON ( 'UNSPECIFIED', 'UNSPECIFIED', 'UNSPECIFIED', ('UNSPECIFIED'), ('UNSPECIFIED'), ('UNSPECIFIED') ) ;
#6 = PERSON_AND_ORGANIZATION_ROLE ( 'design_owner' ) ;
#7 = DIRECTION ( 'NONE',  ( 4.275831445896958607E-31, 1.000000000000000000, 1.224646799147353207E-16 ) ) ;
#8 = AXIS2_PLACEMENT_3D ( 'NONE', #83, #112, #7 ) ;
#9 = DIRECTION ( 'NONE',  ( -4.456761796588769661E-31, -1.000000000000000000, -1.276467311168695019E-16 ) ) ;
#10 = ORIENTED_EDGE ( 'NONE', *, *, #137, .T. ) ;
#11 = DIRECTION ( 'NONE',  ( -4.456761796588770537E-31, -1.000000000000000000, -1.276467311168695266E-16 ) ) ;
#12 = EDGE_LOOP ( 'NONE', ( #95 ) ) ;
#13 = CALENDAR_DATE ( 2021, 8, 12 ) ;
#14 = PLANE ( 'NONE',  #37 ) ;
#15 = DIRECTION ( 'NONE',  ( 0.0000000000000000000, 1.000000000000000000, 0.0000000000000000000 ) ) ;
#16 = CARTESIAN_POINT ( 'NONE',  ( 2.935478058384964713E-31, -0.7499999999999997780, 8.407543313284912792E-17 ) ) ;
#17 = CARTESIAN_POINT ( 'NONE',  ( 3.072167734573956102E-14, -1.499999999999993339, 8.799038105676622479 ) ) ;
#18 = CC_DESIGN_APPROVAL ( #222, ( #123 ) ) ;
#19 = PRODUCT_DEFINITION_FORMATION_WITH_SPECIFIED_SOURCE ( 'ANY', '', #53, .NOT_KNOWN. ) ;
#20 = PERSON_AND_ORGANIZATION_ROLE ( 'classification_officer' ) ;
#21 = DIRECTION ( 'NONE',  ( 0.0000000000000000000, 1.000000000000000000, 0.0000000000000000000 ) ) ;
#22 = PRODUCT_RELATED_PRODUCT_CATEGORY ( 'detail', '', ( #53 ) ) ;
#23 = SHAPE_DEFINITION_REPRESENTATION ( #220, #78 ) ;
#24 = APPROVAL_DATE_TIME ( #166, #175 ) ;
#25 = ORIENTED_EDGE ( 'NONE', *, *, #137, .F. ) ;
#26 = APPLICATION_PROTOCOL_DEFINITION ( 'international standard', 'config_control_design', 1994, #115 ) ;
#27 = DIRECTION ( 'NONE',  ( -3.491481338843133355E-15, 1.224646799147353207E-16, -1.000000000000000000 ) ) ;
#28 = AXIS2_PLACEMENT_3D ( 'NONE', #178, #148, #98 ) ;
#29 = APPLICATION_PROTOCOL_DEFINITION ( 'international standard', 'config_control_design', 1994, #201 ) ;
#30 = DIRECTION ( 'NONE',  ( 0.0000000000000000000, -1.000000000000000000, 0.0000000000000000000 ) ) ;
#31 = CYLINDRICAL_SURFACE ( 'NONE', #67, 0.7499999999999995559 ) ;
#32 = FACE_OUTER_BOUND ( 'NONE', #133, .T. ) ;
#33 = EDGE_CURVE ( 'NONE', #152, #152, #202, .T. ) ;
#34 = PERSON_AND_ORGANIZATION ( #5, #140 ) ;
#35 = FACE_OUTER_BOUND ( 'NONE', #4, .T. ) ;
#36 = CARTESIAN_POINT ( 'NONE',  ( 1.036969957636410417E-13, 1.499999999999990008, 29.69999999999999574 ) ) ;
#37 = AXIS2_PLACEMENT_3D ( 'NONE', #182, #63, #168 ) ;
#38 = EDGE_CURVE ( 'NONE', #107, #107, #54, .T. ) ;
#39 = DIRECTION ( 'NONE',  ( 3.491481338843133355E-15, -1.224646799147353207E-16, 1.000000000000000000 ) ) ;
#40 =( GEOMETRIC_REPRESENTATION_CONTEXT ( 3 ) GLOBAL_UNCERTAINTY_ASSIGNED_CONTEXT ( ( #176 ) ) GLOBAL_UNIT_ASSIGNED_CONTEXT ( ( #127, #190, #64 ) ) REPRESENTATION_CONTEXT ( 'NONE', 'WORKASPACE' ) );
#41 = DIRECTION ( 'NONE',  ( 0.0000000000000000000, 0.0000000000000000000, 1.000000000000000000 ) ) ;
#42 = EDGE_LOOP ( 'NONE', ( #75 ) ) ;
#43 = PRODUCT_DEFINITION ( 'UNKNOWN', '', #19, #156 ) ;
#44 = APPROVAL_DATE_TIME ( #191, #222 ) ;
#45 = DIRECTION ( 'NONE',  ( 3.491481338843133355E-15, -1.276467311168695266E-16, 1.000000000000000000 ) ) ;
#46 = CARTESIAN_POINT ( 'NONE',  ( 2.094888803305880013E-14, -7.658803867012171593E-16, 6.000000000000000000 ) ) ;
#47 = CIRCLE ( 'NONE', #153, 1.499999999999992228 ) ;
#48 = DIRECTION ( 'NONE',  ( -3.491481338843133355E-15, 1.276467311168695266E-16, -1.000000000000000000 ) ) ;
#49 = EDGE_CURVE ( 'NONE', #122, #122, #157, .T. ) ;
#50 = ORIENTED_EDGE ( 'NONE', *, *, #38, .T. ) ;
#51 = DATE_TIME_ROLE ( 'creation_date' ) ;
#52 = DIRECTION ( 'NONE',  ( -3.491481338843133355E-15, 1.224646799147353207E-16, -1.000000000000000000 ) ) ;
#53 = PRODUCT ( '379706', '379706', '', ( #207 ) ) ;
#54 = CIRCLE ( 'NONE', #217, 1.499999999999993783 ) ;
#55 = CC_DESIGN_PERSON_AND_ORGANIZATION_ASSIGNMENT ( #34, #111, ( #19 ) ) ;
#56 = CARTESIAN_POINT ( 'NONE',  ( 0.0000000000000000000, 0.0000000000000000000, 0.0000000000000000000 ) ) ;
#57 = CIRCLE ( 'NONE', #204, 0.7499999999999997780 ) ;
#58 = AXIS2_PLACEMENT_3D ( 'NONE', #120, #185, #85 ) ;
#59 = APPROVAL_STATUS ( 'not_yet_approved' ) ;
#60 = CARTESIAN_POINT ( 'NONE',  ( 2.094888803305880013E-14, -7.658803867012171593E-16, 6.000000000000000000 ) ) ;
#61 = MANIFOLD_SOLID_BREP ( 'Corps-Déplacer/Copier1[2]', #77 ) ;
#62 = PERSON_AND_ORGANIZATION ( #5, #140 ) ;
#63 = DIRECTION ( 'NONE',  ( 3.491481338843133355E-15, -1.224646799147353207E-16, 1.000000000000000000 ) ) ;
#64 =( NAMED_UNIT ( * ) SI_UNIT ( $, .STERADIAN. ) SOLID_ANGLE_UNIT ( ) );
#65 = CC_DESIGN_PERSON_AND_ORGANIZATION_ASSIGNMENT ( #101, #96, ( #19 ) ) ;
#66 = FACE_OUTER_BOUND ( 'NONE', #118, .T. ) ;
#67 = AXIS2_PLACEMENT_3D ( 'NONE', #181, #69, #9 ) ;
#68 = LOCAL_TIME ( 10, 33, 42.00000000000000000, #74 ) ;
#69 = DIRECTION ( 'NONE',  ( 3.491481338843133355E-15, -1.276467311168695266E-16, 1.000000000000000000 ) ) ;
#70 = PLANE ( 'NONE',  #223 ) ;
#71 = ADVANCED_FACE ( 'NONE', ( #35, #151 ), #31, .T. ) ;
#72 = CONICAL_SURFACE ( 'NONE', #198, 5.750000000000000000, 0.2617993877991501850 ) ;
#73 = CC_DESIGN_SECURITY_CLASSIFICATION ( #123, ( #19 ) ) ;
#74 = COORDINATED_UNIVERSAL_TIME_OFFSET ( 1, 0, .AHEAD. ) ;
#75 = ORIENTED_EDGE ( 'NONE', *, *, #49, .T. ) ;
#76 = DIRECTION ( 'NONE',  ( 3.491481338843133355E-15, -1.276467311168695266E-16, 1.000000000000000000 ) ) ;
#77 = CLOSED_SHELL ( 'NONE', ( #106, #71, #194 ) ) ;
#78 = ADVANCED_BREP_SHAPE_REPRESENTATION ( '379706', ( #130, #61, #174 ), #40 ) ;
#79 = ORIENTED_EDGE ( 'NONE', *, *, #150, .T. ) ;
#80 = CARTESIAN_POINT ( 'NONE',  ( 6.278049405826541521E-31, -4.640088260904262575E-32, 1.798104814705012605E-16 ) ) ;
#81 = ADVANCED_FACE ( 'NONE', ( #164, #132 ), #103, .T. ) ;
#82 = PERSON_AND_ORGANIZATION ( #5, #140 ) ;
#83 = CARTESIAN_POINT ( 'NONE',  ( 0.0000000000000000000, 0.0000000000000000000, 0.0000000000000000000 ) ) ;
#84 = APPROVAL_PERSON_ORGANIZATION ( #2, #222, #158 ) ;
#85 = DIRECTION ( 'NONE',  ( -4.275831445896958607E-31, -1.000000000000000000, -1.224646799147353207E-16 ) ) ;
#86 = VERTEX_POINT ( 'NONE', #17 ) ;
#87 = AXIS2_PLACEMENT_3D ( 'NONE', #60, #114, #102 ) ;
#88 = CARTESIAN_POINT ( 'NONE',  ( 2.094888803305880013E-14, -0.7500000000000002220, 6.000000000000000000 ) ) ;
#89 = APPROVAL_PERSON_ORGANIZATION ( #149, #175, #193 ) ;
#90 = CALENDAR_DATE ( 2021, 8, 12 ) ;
#91 = EDGE_CURVE ( 'NONE', #124, #124, #57, .T. ) ;
#92 = EDGE_LOOP ( 'NONE', ( #169 ) ) ;
#93 = CALENDAR_DATE ( 2021, 8, 12 ) ;
#94 = DIRECTION ( 'NONE',  ( -4.275831445896958607E-31, -1.000000000000000000, -1.224646799147353207E-16 ) ) ;
#95 = ORIENTED_EDGE ( 'NONE', *, *, #91, .F. ) ;
#96 = PERSON_AND_ORGANIZATION_ROLE ( 'design_supplier' ) ;
#97 = CARTESIAN_POINT ( 'NONE',  ( 1.047444401652940007E-13, -3.673940397442059178E-15, 30.00000000000000000 ) ) ;
#98 = DIRECTION ( 'NONE',  ( 4.275831445896958607E-31, 1.000000000000000000, 1.224646799147353207E-16 ) ) ;
#99 = FACE_OUTER_BOUND ( 'NONE', #116, .T. ) ;
#100 = EDGE_LOOP ( 'NONE', ( #108 ) ) ;
#101 = PERSON_AND_ORGANIZATION ( #5, #140 ) ;
#102 = DIRECTION ( 'NONE',  ( 0.0000000000000000000, -1.000000000000000000, 0.0000000000000000000 ) ) ;
#103 = CONICAL_SURFACE ( 'NONE', #139, 1.199999999999993738, 0.7853981633974453924 ) ;
#104 = CC_DESIGN_DATE_AND_TIME_ASSIGNMENT ( #155, #159, ( #123 ) ) ;
#105 = AXIS2_PLACEMENT_3D ( 'NONE', #195, #52, #15 ) ;
#106 = ADVANCED_FACE ( 'NONE', ( #215 ), #70, .T. ) ;
#107 = VERTEX_POINT ( 'NONE', #36 ) ;
#108 = ORIENTED_EDGE ( 'NONE', *, *, #38, .F. ) ;
#109 = EDGE_LOOP ( 'NONE', ( #199 ) ) ;
#110 = COORDINATED_UNIVERSAL_TIME_OFFSET ( 1, 0, .AHEAD. ) ;
#111 = PERSON_AND_ORGANIZATION_ROLE ( 'creator' ) ;
#112 = DIRECTION ( 'NONE',  ( -3.491481338843133355E-15, 1.224646799147353207E-16, -1.000000000000000000 ) ) ;
#113 = APPROVAL_ROLE ( '' ) ;
#114 = DIRECTION ( 'NONE',  ( 3.491481338843133355E-15, -1.276467311168695266E-16, 1.000000000000000000 ) ) ;
#115 = APPLICATION_CONTEXT ( 'configuration controlled 3d designs of mechanical parts and assemblies' ) ;
#116 = EDGE_LOOP ( 'NONE', ( #50 ) ) ;
#117 = PLANE ( 'NONE',  #58 ) ;
#118 = EDGE_LOOP ( 'NONE', ( #79 ) ) ;
#119 = DATE_AND_TIME ( #93, #172 ) ;
#120 = CARTESIAN_POINT ( 'NONE',  ( -1.282754905350004938E-30, 4.499298539707957223E-32, -3.673956068672652843E-16 ) ) ;
#121 = ADVANCED_FACE ( 'NONE', ( #99, #161 ), #218, .T. ) ;
#122 = VERTEX_POINT ( 'NONE', #186 ) ;
#123 = SECURITY_CLASSIFICATION ( '', '', #205 ) ;
#124 = VERTEX_POINT ( 'NONE', #16 ) ;
#125 = ADVANCED_FACE ( 'NONE', ( #197 ), #14, .F. ) ;
#126 = LOCAL_TIME ( 10, 33, 42.00000000000000000, #135 ) ;
#127 =( LENGTH_UNIT ( ) NAMED_UNIT ( * ) SI_UNIT ( .MILLI., .METRE. ) );
#128 = APPROVAL_PERSON_ORGANIZATION ( #211, #210, #113 ) ;
#129 = DIRECTION ( 'NONE',  ( -3.491481338843133355E-15, 1.224646799147353207E-16, -1.000000000000000000 ) ) ;
#130 = MANIFOLD_SOLID_BREP ( 'Corps-Déplacer/Copier1[1]', #173 ) ;
#131 = PERSON_AND_ORGANIZATION_ROLE ( 'creator' ) ;
#132 = FACE_BOUND ( 'NONE', #109, .T. ) ;
#133 = EDGE_LOOP ( 'NONE', ( #184 ) ) ;
#134 = DIRECTION ( 'NONE',  ( 0.0000000000000000000, -1.000000000000000000, 0.0000000000000000000 ) ) ;
#135 = COORDINATED_UNIVERSAL_TIME_OFFSET ( 1, 0, .AHEAD. ) ;
#136 = CARTESIAN_POINT ( 'NONE',  ( 8.610081678426450799E-14, -3.147800816442411500E-15, 24.66025403784433223 ) ) ;
#137 = EDGE_CURVE ( 'NONE', #221, #221, #187, .T. ) ;
#138 = CARTESIAN_POINT ( 'NONE',  ( 1.036969957636410417E-13, -3.637200993467639107E-15, 29.69999999999999574 ) ) ;
#139 = AXIS2_PLACEMENT_3D ( 'NONE', #97, #129, #21 ) ;
#140 = ORGANIZATION ( 'UNSPECIFIED', 'UNSPECIFIED', '' ) ;
#141 = CC_DESIGN_PERSON_AND_ORGANIZATION_ASSIGNMENT ( #170, #6, ( #53 ) ) ;
#142 = EDGE_LOOP ( 'NONE', ( #213 ) ) ;
#143 = CALENDAR_DATE ( 2021, 8, 12 ) ;
#144 = FACE_BOUND ( 'NONE', #162, .T. ) ;
#145 = ADVANCED_FACE ( 'NONE', ( #144, #66 ), #72, .T. ) ;
#146 = PLANE ( 'NONE',  #28 ) ;
#147 = EDGE_LOOP ( 'NONE', ( #25 ) ) ;
#148 = DIRECTION ( 'NONE',  ( -3.491481338843133355E-15, 1.224646799147353207E-16, -1.000000000000000000 ) ) ;
#149 = PERSON_AND_ORGANIZATION ( #5, #140 ) ;
#150 = EDGE_CURVE ( 'NONE', #86, #86, #47, .T. ) ;
#151 = FACE_OUTER_BOUND ( 'NONE', #142, .T. ) ;
#152 = VERTEX_POINT ( 'NONE', #219 ) ;
#153 = AXIS2_PLACEMENT_3D ( 'NONE', #171, #48, #134 ) ;
#154 = CC_DESIGN_PERSON_AND_ORGANIZATION_ASSIGNMENT ( #82, #131, ( #43 ) ) ;
#155 = DATE_AND_TIME ( #179, #68 ) ;
#156 = DESIGN_CONTEXT ( 'detailed design', #201, 'design' ) ;
#157 = CIRCLE ( 'NONE', #87, 0.7499999999999994449 ) ;
#158 = APPROVAL_ROLE ( '' ) ;
#159 = DATE_TIME_ROLE ( 'classification_date' ) ;
#160 = APPROVAL_STATUS ( 'not_yet_approved' ) ;
#161 = FACE_OUTER_BOUND ( 'NONE', #92, .T. ) ;
#162 = EDGE_LOOP ( 'NONE', ( #10 ) ) ;
#163 = COORDINATED_UNIVERSAL_TIME_OFFSET ( 1, 0, .AHEAD. ) ;
#164 = FACE_OUTER_BOUND ( 'NONE', #100, .T. ) ;
#165 = LOCAL_TIME ( 10, 33, 42.00000000000000000, #110 ) ;
#166 = DATE_AND_TIME ( #13, #208 ) ;
#167 = DIRECTION ( 'NONE',  ( 3.491481338843133355E-15, -1.276467311168695266E-16, 1.000000000000000000 ) ) ;
#168 = DIRECTION ( 'NONE',  ( -4.275831445896958607E-31, -1.000000000000000000, -1.224646799147353207E-16 ) ) ;
#169 = ORIENTED_EDGE ( 'NONE', *, *, #150, .F. ) ;
#170 = PERSON_AND_ORGANIZATION ( #5, #140 ) ;
#171 = CARTESIAN_POINT ( 'NONE',  ( 3.072167734573956102E-14, -1.123168451162392805E-15, 8.799038105676622479 ) ) ;
#172 = LOCAL_TIME ( 10, 33, 42.00000000000000000, #192 ) ;
#173 = CLOSED_SHELL ( 'NONE', ( #121, #81, #1, #145, #125 ) ) ;
#174 = AXIS2_PLACEMENT_3D ( 'NONE', #56, #41, #180 ) ;
#175 = APPROVAL ( #160, 'UNSPECIFIED' ) ;
#176 = UNCERTAINTY_MEASURE_WITH_UNIT (LENGTH_MEASURE( 1.000000000000000082E-05 ), #127, 'distance_accuracy_value', 'NONE');
#177 = APPROVAL_STATUS ( 'not_yet_approved' ) ;
#178 = CARTESIAN_POINT ( 'NONE',  ( 1.047444401652940007E-13, 8.998558695971044381E-33, 30.00000000000000000 ) ) ;
#179 = CALENDAR_DATE ( 2021, 8, 12 ) ;
#180 = DIRECTION ( 'NONE',  ( 1.000000000000000000, 0.0000000000000000000, 0.0000000000000000000 ) ) ;
#181 = CARTESIAN_POINT ( 'NONE',  ( -6.413839710158237013E-31, 0.0000000000000000000, -1.836996703606440502E-16 ) ) ;
#182 = CARTESIAN_POINT ( 'NONE',  ( 2.094888803305880013E-14, 1.124819836996385269E-32, 6.000000000000000000 ) ) ;
#183 = DIRECTION ( 'NONE',  ( 0.0000000000000000000, 1.000000000000000000, 0.0000000000000000000 ) ) ;
#184 = ORIENTED_EDGE ( 'NONE', *, *, #33, .F. ) ;
#185 = DIRECTION ( 'NONE',  ( 3.491481338843133355E-15, -1.224646799147353207E-16, 1.000000000000000000 ) ) ;
#186 = CARTESIAN_POINT ( 'NONE',  ( 2.094888803305880013E-14, -0.7500000000000002220, 6.000000000000000000 ) ) ;
#187 = CIRCLE ( 'NONE', #206, 0.7499999999999994449 ) ;
#188 = CC_DESIGN_APPROVAL ( #210, ( #19 ) ) ;
#189 = CC_DESIGN_DATE_AND_TIME_ASSIGNMENT ( #214, #51, ( #43 ) ) ;
#190 =( NAMED_UNIT ( * ) PLANE_ANGLE_UNIT ( ) SI_UNIT ( $, .RADIAN. ) );
#191 = DATE_AND_TIME ( #90, #165 ) ;
#192 = COORDINATED_UNIVERSAL_TIME_OFFSET ( 1, 0, .AHEAD. ) ;
#193 = APPROVAL_ROLE ( '' ) ;
#194 = ADVANCED_FACE ( 'NONE', ( #209 ), #117, .F. ) ;
#195 = CARTESIAN_POINT ( 'NONE',  ( 1.047444401652940007E-13, -3.673940397442059178E-15, 30.00000000000000000 ) ) ;
#196 = ORIENTED_EDGE ( 'NONE', *, *, #91, .T. ) ;
#197 = FACE_OUTER_BOUND ( 'NONE', #147, .T. ) ;
#198 = AXIS2_PLACEMENT_3D ( 'NONE', #136, #167, #200 ) ;
#199 = ORIENTED_EDGE ( 'NONE', *, *, #33, .T. ) ;
#200 = DIRECTION ( 'NONE',  ( 0.0000000000000000000, -1.000000000000000000, 0.0000000000000000000 ) ) ;
#201 = APPLICATION_CONTEXT ( 'configuration controlled 3d designs of mechanical parts and assemblies' ) ;
#202 = CIRCLE ( 'NONE', #105, 1.199999999999993738 ) ;
#203 = CC_DESIGN_APPROVAL ( #175, ( #43 ) ) ;
#204 = AXIS2_PLACEMENT_3D ( 'NONE', #80, #45, #11 ) ;
#205 = SECURITY_CLASSIFICATION_LEVEL ( 'unclassified' ) ;
#206 = AXIS2_PLACEMENT_3D ( 'NONE', #46, #76, #30 ) ;
#207 = MECHANICAL_CONTEXT ( 'NONE', #115, 'mechanical' ) ;
#208 = LOCAL_TIME ( 10, 33, 42.00000000000000000, #163 ) ;
#209 = FACE_OUTER_BOUND ( 'NONE', #12, .T. ) ;
#210 = APPROVAL ( #59, 'UNSPECIFIED' ) ;
#211 = PERSON_AND_ORGANIZATION ( #5, #140 ) ;
#212 = CARTESIAN_POINT ( 'NONE',  ( 2.094888803305880013E-14, 1.124819836996385269E-32, 6.000000000000000000 ) ) ;
#213 = ORIENTED_EDGE ( 'NONE', *, *, #49, .F. ) ;
#214 = DATE_AND_TIME ( #143, #126 ) ;
#215 = FACE_OUTER_BOUND ( 'NONE', #42, .T. ) ;
#216 = APPROVAL_DATE_TIME ( #119, #210 ) ;
#217 = AXIS2_PLACEMENT_3D ( 'NONE', #138, #27, #183 ) ;
#218 = CYLINDRICAL_SURFACE ( 'NONE', #8, 1.499999999999992228 ) ;
#219 = CARTESIAN_POINT ( 'NONE',  ( 1.047444401652940007E-13, 1.199999999999990186, 30.00000000000000000 ) ) ;
#220 = PRODUCT_DEFINITION_SHAPE ( 'NONE', 'NONE',  #43 ) ;
#221 = VERTEX_POINT ( 'NONE', #88 ) ;
#222 = APPROVAL ( #177, 'UNSPECIFIED' ) ;
#223 = AXIS2_PLACEMENT_3D ( 'NONE', #212, #39, #94 ) ;
ENDSEC;
END-ISO-10303-21;
