ISO-10303-21;
HEADER;
FILE_DESCRIPTION (( 'STEP AP203' ),
    '1' );
FILE_NAME ('379705.step',
    '2021-12-08T09:33:41',
    ( '' ),
    ( '' ),
    'SwSTEP 2.0',
    'SolidWorks 2019',
    '' );
FILE_SCHEMA (( 'CONFIG_CONTROL_DESIGN' ));
ENDSEC;

DATA;
#1 = EDGE_CURVE ( 'NONE', #81, #81, #134, .T. ) ;
#2 = APPROVAL_DATE_TIME ( #4, #202 ) ;
#3 = FACE_OUTER_BOUND ( 'NONE', #25, .T. ) ;
#4 = DATE_AND_TIME ( #121, #71 ) ;
#5 = DIRECTION ( 'NONE',  ( -4.275831445896958607E-31, -1.000000000000000000, -1.224646799147353207E-16 ) ) ;
#6 = CARTESIAN_POINT ( 'NONE',  ( 1.036969957636410417E-13, 1.499999999999990008, 29.69999999999999574 ) ) ;
#7 = APPLICATION_PROTOCOL_DEFINITION ( 'international standard', 'config_control_design', 1994, #169 ) ;
#8 = EDGE_LOOP ( 'NONE', ( #47 ) ) ;
#9 = PERSON_AND_ORGANIZATION ( #156, #141 ) ;
#10 = EDGE_LOOP ( 'NONE', ( #214 ) ) ;
#11 = DIRECTION ( 'NONE',  ( -3.491481338843133355E-15, 1.276467311168695266E-16, -1.000000000000000000 ) ) ;
#12 = PLANE ( 'NONE',  #199 ) ;
#13 =( GEOMETRIC_REPRESENTATION_CONTEXT ( 3 ) GLOBAL_UNCERTAINTY_ASSIGNED_CONTEXT ( ( #128 ) ) GLOBAL_UNIT_ASSIGNED_CONTEXT ( ( #38, #125, #92 ) ) REPRESENTATION_CONTEXT ( 'NONE', 'WORKASPACE' ) );
#14 = CARTESIAN_POINT ( 'NONE',  ( 1.036969957636410417E-13, -3.637200993467639107E-15, 29.69999999999999574 ) ) ;
#15 = AXIS2_PLACEMENT_3D ( 'NONE', #205, #139, #200 ) ;
#16 = CC_DESIGN_DATE_AND_TIME_ASSIGNMENT ( #29, #94, ( #132 ) ) ;
#17 = CARTESIAN_POINT ( 'NONE',  ( 1.047444401652940007E-13, -3.673940397442059178E-15, 30.00000000000000000 ) ) ;
#18 = FACE_BOUND ( 'NONE', #48, .T. ) ;
#19 = FACE_OUTER_BOUND ( 'NONE', #90, .T. ) ;
#20 = CALENDAR_DATE ( 2021, 8, 12 ) ;
#21 = COORDINATED_UNIVERSAL_TIME_OFFSET ( 1, 0, .AHEAD. ) ;
#22 = CALENDAR_DATE ( 2021, 8, 12 ) ;
#23 = CARTESIAN_POINT ( 'NONE',  ( -6.413839710158237013E-31, 0.0000000000000000000, -1.836996703606440502E-16 ) ) ;
#24 = ORIENTED_EDGE ( 'NONE', *, *, #42, .T. ) ;
#25 = EDGE_LOOP ( 'NONE', ( #75 ) ) ;
#26 = CIRCLE ( 'NONE', #58, 1.499999999999993783 ) ;
#27 = DIRECTION ( 'NONE',  ( 3.491481338843133355E-15, -1.224646799147353207E-16, 1.000000000000000000 ) ) ;
#28 = AXIS2_PLACEMENT_3D ( 'NONE', #17, #67, #33 ) ;
#29 = DATE_AND_TIME ( #99, #131 ) ;
#30 = MANIFOLD_SOLID_BREP ( 'Corps-Déplacer/Copier1[1]', #35 ) ;
#31 = PRODUCT_DEFINITION_FORMATION_WITH_SPECIFIED_SOURCE ( 'ANY', '', #142, .NOT_KNOWN. ) ;
#32 = ADVANCED_FACE ( 'NONE', ( #18, #136 ), #192, .T. ) ;
#33 = DIRECTION ( 'NONE',  ( 0.0000000000000000000, 1.000000000000000000, 0.0000000000000000000 ) ) ;
#34 = AXIS2_PLACEMENT_3D ( 'NONE', #145, #210, #59 ) ;
#35 = CLOSED_SHELL ( 'NONE', ( #219, #211, #178, #32, #153 ) ) ;
#36 = PERSON_AND_ORGANIZATION_ROLE ( 'creator' ) ;
#37 = CARTESIAN_POINT ( 'NONE',  ( 1.396592535537253342E-14, -0.4999999999999971689, 4.000000000000000000 ) ) ;
#38 =( LENGTH_UNIT ( ) NAMED_UNIT ( * ) SI_UNIT ( .MILLI., .METRE. ) );
#39 = DATE_AND_TIME ( #20, #96 ) ;
#40 = CARTESIAN_POINT ( 'NONE',  ( 1.396592535537253342E-14, -5.105869244674781062E-16, 4.000000000000000000 ) ) ;
#41 = APPROVAL_PERSON_ORGANIZATION ( #144, #198, #162 ) ;
#42 = EDGE_CURVE ( 'NONE', #223, #223, #112, .T. ) ;
#43 = FACE_OUTER_BOUND ( 'NONE', #61, .T. ) ;
#44 = ORIENTED_EDGE ( 'NONE', *, *, #107, .F. ) ;
#45 = DESIGN_CONTEXT ( 'detailed design', #169, 'design' ) ;
#46 = CARTESIAN_POINT ( 'NONE',  ( 2.699631110561361630E-14, -9.869710104157146670E-16, 7.732050807568849216 ) ) ;
#47 = ORIENTED_EDGE ( 'NONE', *, *, #42, .F. ) ;
#48 = EDGE_LOOP ( 'NONE', ( #76 ) ) ;
#49 = FACE_OUTER_BOUND ( 'NONE', #89, .T. ) ;
#50 = LOCAL_TIME ( 10, 33, 41.00000000000000000, #186 ) ;
#51 = DIRECTION ( 'NONE',  ( -3.491481338843133355E-15, 1.224646799147353207E-16, -1.000000000000000000 ) ) ;
#52 = VERTEX_POINT ( 'NONE', #69 ) ;
#53 = DIRECTION ( 'NONE',  ( 4.275831445896958607E-31, 1.000000000000000000, 1.224646799147353207E-16 ) ) ;
#54 = PERSON_AND_ORGANIZATION ( #156, #141 ) ;
#55 = APPROVAL_STATUS ( 'not_yet_approved' ) ;
#56 = CC_DESIGN_PERSON_AND_ORGANIZATION_ASSIGNMENT ( #68, #135, ( #132 ) ) ;
#57 = CARTESIAN_POINT ( 'NONE',  ( -1.282754905350004938E-30, 4.499298539707957223E-32, -3.673956068672652843E-16 ) ) ;
#58 = AXIS2_PLACEMENT_3D ( 'NONE', #14, #177, #193 ) ;
#59 = DIRECTION ( 'NONE',  ( -4.456761796588771413E-31, -1.000000000000000000, -1.276467311168695019E-16 ) ) ;
#60 = EDGE_LOOP ( 'NONE', ( #130 ) ) ;
#61 = EDGE_LOOP ( 'NONE', ( #44 ) ) ;
#62 = EDGE_LOOP ( 'NONE', ( #24 ) ) ;
#63 = CIRCLE ( 'NONE', #172, 0.4999999999999966693 ) ;
#64 = CC_DESIGN_APPROVAL ( #140, ( #132 ) ) ;
#65 = FACE_OUTER_BOUND ( 'NONE', #62, .T. ) ;
#66 = CARTESIAN_POINT ( 'NONE',  ( 1.396592535537253342E-14, 1.124819836996385132E-32, 4.000000000000000000 ) ) ;
#67 = DIRECTION ( 'NONE',  ( -3.491481338843133355E-15, 1.224646799147353207E-16, -1.000000000000000000 ) ) ;
#68 = PERSON_AND_ORGANIZATION ( #156, #141 ) ;
#69 = CARTESIAN_POINT ( 'NONE',  ( 4.094901095205123029E-31, -0.4999999999999961142, 1.172826287126004493E-16 ) ) ;
#70 = CC_DESIGN_APPROVAL ( #198, ( #31 ) ) ;
#71 = LOCAL_TIME ( 10, 33, 41.00000000000000000, #185 ) ;
#72 = ORIENTED_EDGE ( 'NONE', *, *, #207, .T. ) ;
#73 = DIRECTION ( 'NONE',  ( -4.456761796588768785E-31, -1.000000000000000000, -1.276467311168695019E-16 ) ) ;
#74 = APPLICATION_CONTEXT ( 'configuration controlled 3d designs of mechanical parts and assemblies' ) ;
#75 = ORIENTED_EDGE ( 'NONE', *, *, #207, .F. ) ;
#76 = ORIENTED_EDGE ( 'NONE', *, *, #120, .T. ) ;
#77 = CARTESIAN_POINT ( 'NONE',  ( 1.396592535537253342E-14, 1.124819836996385132E-32, 4.000000000000000000 ) ) ;
#78 = CARTESIAN_POINT ( 'NONE',  ( 1.396592535537253342E-14, -0.4999999999999971689, 4.000000000000000000 ) ) ;
#79 = ADVANCED_FACE ( 'NONE', ( #197, #187 ), #164, .T. ) ;
#80 = APPROVAL_DATE_TIME ( #220, #140 ) ;
#81 = VERTEX_POINT ( 'NONE', #209 ) ;
#82 = PERSON_AND_ORGANIZATION_ROLE ( 'design_supplier' ) ;
#83 = CIRCLE ( 'NONE', #123, 1.499999999999992228 ) ;
#84 = CONICAL_SURFACE ( 'NONE', #28, 1.199999999999993738, 0.7853981633974453924 ) ;
#85 = APPROVAL_ROLE ( '' ) ;
#86 = DIRECTION ( 'NONE',  ( 3.491481338843133355E-15, -1.224646799147353207E-16, 1.000000000000000000 ) ) ;
#87 = DIRECTION ( 'NONE',  ( 3.491481338843133355E-15, -1.276467311168695266E-16, 1.000000000000000000 ) ) ;
#88 = ADVANCED_FACE ( 'NONE', ( #43 ), #212, .F. ) ;
#89 = EDGE_LOOP ( 'NONE', ( #127 ) ) ;
#90 = EDGE_LOOP ( 'NONE', ( #93 ) ) ;
#91 = CIRCLE ( 'NONE', #34, 0.4999999999999961142 ) ;
#92 =( NAMED_UNIT ( * ) SI_UNIT ( $, .STERADIAN. ) SOLID_ANGLE_UNIT ( ) );
#93 = ORIENTED_EDGE ( 'NONE', *, *, #180, .F. ) ;
#94 = DATE_TIME_ROLE ( 'creation_date' ) ;
#95 = CC_DESIGN_PERSON_AND_ORGANIZATION_ASSIGNMENT ( #106, #82, ( #31 ) ) ;
#96 = LOCAL_TIME ( 10, 33, 41.00000000000000000, #21 ) ;
#97 = MANIFOLD_SOLID_BREP ( 'Corps-Déplacer/Copier1[2]', #221 ) ;
#98 = CYLINDRICAL_SURFACE ( 'NONE', #146, 1.499999999999992228 ) ;
#99 = CALENDAR_DATE ( 2021, 8, 12 ) ;
#100 = CARTESIAN_POINT ( 'NONE',  ( 1.047444401652940007E-13, -3.673940397442059178E-15, 30.00000000000000000 ) ) ;
#101 = CARTESIAN_POINT ( 'NONE',  ( 0.0000000000000000000, 0.0000000000000000000, 0.0000000000000000000 ) ) ;
#102 = PERSON_AND_ORGANIZATION_ROLE ( 'classification_officer' ) ;
#103 = CC_DESIGN_DATE_AND_TIME_ASSIGNMENT ( #105, #158, ( #150 ) ) ;
#104 = PRODUCT_DEFINITION_SHAPE ( 'NONE', 'NONE',  #132 ) ;
#105 = DATE_AND_TIME ( #22, #50 ) ;
#106 = PERSON_AND_ORGANIZATION ( #156, #141 ) ;
#107 = EDGE_CURVE ( 'NONE', #52, #52, #91, .T. ) ;
#108 = PERSON_AND_ORGANIZATION_ROLE ( 'design_owner' ) ;
#109 = VERTEX_POINT ( 'NONE', #6 ) ;
#110 = CC_DESIGN_PERSON_AND_ORGANIZATION_ASSIGNMENT ( #9, #108, ( #142 ) ) ;
#111 = EDGE_LOOP ( 'NONE', ( #151 ) ) ;
#112 = CIRCLE ( 'NONE', #15, 0.4999999999999966693 ) ;
#113 = DIRECTION ( 'NONE',  ( 0.0000000000000000000, -1.000000000000000000, 0.0000000000000000000 ) ) ;
#114 = AXIS2_PLACEMENT_3D ( 'NONE', #66, #204, #170 ) ;
#115 = CC_DESIGN_PERSON_AND_ORGANIZATION_ASSIGNMENT ( #54, #36, ( #31 ) ) ;
#116 = DIRECTION ( 'NONE',  ( 4.275831445896958607E-31, 1.000000000000000000, 1.224646799147353207E-16 ) ) ;
#117 = CC_DESIGN_SECURITY_CLASSIFICATION ( #150, ( #31 ) ) ;
#118 = VERTEX_POINT ( 'NONE', #37 ) ;
#119 = PERSON_AND_ORGANIZATION ( #156, #141 ) ;
#120 = EDGE_CURVE ( 'NONE', #118, #118, #63, .T. ) ;
#121 = CALENDAR_DATE ( 2021, 8, 12 ) ;
#122 = APPLICATION_PROTOCOL_DEFINITION ( 'international standard', 'config_control_design', 1994, #74 ) ;
#123 = AXIS2_PLACEMENT_3D ( 'NONE', #46, #11, #174 ) ;
#124 = CARTESIAN_POINT ( 'NONE',  ( 2.699631110561361630E-14, -1.499999999999993339, 7.732050807568849216 ) ) ;
#125 =( NAMED_UNIT ( * ) PLANE_ANGLE_UNIT ( ) SI_UNIT ( $, .RADIAN. ) );
#126 = AXIS2_PLACEMENT_3D ( 'NONE', #154, #203, #116 ) ;
#127 = ORIENTED_EDGE ( 'NONE', *, *, #1, .F. ) ;
#128 = UNCERTAINTY_MEASURE_WITH_UNIT (LENGTH_MEASURE( 1.000000000000000082E-05 ), #38, 'distance_accuracy_value', 'NONE');
#129 = PLANE ( 'NONE',  #126 ) ;
#130 = ORIENTED_EDGE ( 'NONE', *, *, #107, .T. ) ;
#131 = LOCAL_TIME ( 10, 33, 41.00000000000000000, #173 ) ;
#132 = PRODUCT_DEFINITION ( 'UNKNOWN', '', #31, #45 ) ;
#133 = PLANE ( 'NONE',  #114 ) ;
#134 = CIRCLE ( 'NONE', #182, 1.199999999999993738 ) ;
#135 = PERSON_AND_ORGANIZATION_ROLE ( 'creator' ) ;
#136 = FACE_OUTER_BOUND ( 'NONE', #10, .T. ) ;
#137 = FACE_BOUND ( 'NONE', #111, .T. ) ;
#138 = DIRECTION ( 'NONE',  ( 0.0000000000000000000, -1.000000000000000000, 0.0000000000000000000 ) ) ;
#139 = DIRECTION ( 'NONE',  ( 3.491481338843133355E-15, -1.276467311168695266E-16, 1.000000000000000000 ) ) ;
#140 = APPROVAL ( #171, 'UNSPECIFIED' ) ;
#141 = ORGANIZATION ( 'UNSPECIFIED', 'UNSPECIFIED', '' ) ;
#142 = PRODUCT ( '379705', '379705', '', ( #168 ) ) ;
#143 = APPROVAL_STATUS ( 'not_yet_approved' ) ;
#144 = PERSON_AND_ORGANIZATION ( #156, #141 ) ;
#145 = CARTESIAN_POINT ( 'NONE',  ( 6.323281993499491219E-31, -4.656625058315077877E-32, 1.811059942710347195E-16 ) ) ;
#146 = AXIS2_PLACEMENT_3D ( 'NONE', #101, #206, #53 ) ;
#147 = DIRECTION ( 'NONE',  ( 3.491481338843133355E-15, -1.276467311168695266E-16, 1.000000000000000000 ) ) ;
#148 = CC_DESIGN_PERSON_AND_ORGANIZATION_ASSIGNMENT ( #157, #102, ( #150 ) ) ;
#149 = VERTEX_POINT ( 'NONE', #124 ) ;
#150 = SECURITY_CLASSIFICATION ( '', '', #183 ) ;
#151 = ORIENTED_EDGE ( 'NONE', *, *, #1, .T. ) ;
#152 = FACE_OUTER_BOUND ( 'NONE', #217, .T. ) ;
#153 = ADVANCED_FACE ( 'NONE', ( #152 ), #133, .F. ) ;
#154 = CARTESIAN_POINT ( 'NONE',  ( 1.047444401652940007E-13, 8.998558695971044381E-33, 30.00000000000000000 ) ) ;
#155 = APPROVAL_PERSON_ORGANIZATION ( #189, #140, #188 ) ;
#156 = PERSON ( 'UNSPECIFIED', 'UNSPECIFIED', 'UNSPECIFIED', ('UNSPECIFIED'), ('UNSPECIFIED'), ('UNSPECIFIED') ) ;
#157 = PERSON_AND_ORGANIZATION ( #156, #141 ) ;
#158 = DATE_TIME_ROLE ( 'classification_date' ) ;
#159 = APPROVAL_PERSON_ORGANIZATION ( #119, #202, #85 ) ;
#160 = ADVANCED_BREP_SHAPE_REPRESENTATION ( '379705', ( #30, #97, #191 ), #13 ) ;
#161 = AXIS2_PLACEMENT_3D ( 'NONE', #57, #86, #5 ) ;
#162 = APPROVAL_ROLE ( '' ) ;
#163 = CARTESIAN_POINT ( 'NONE',  ( 0.0000000000000000000, 0.0000000000000000000, 0.0000000000000000000 ) ) ;
#164 = CYLINDRICAL_SURFACE ( 'NONE', #196, 0.4999999999999963363 ) ;
#165 = EDGE_LOOP ( 'NONE', ( #72 ) ) ;
#166 = ADVANCED_FACE ( 'NONE', ( #65 ), #12, .T. ) ;
#167 = DIRECTION ( 'NONE',  ( -4.275831445896958607E-31, -1.000000000000000000, -1.224646799147353207E-16 ) ) ;
#168 = MECHANICAL_CONTEXT ( 'NONE', #74, 'mechanical' ) ;
#169 = APPLICATION_CONTEXT ( 'configuration controlled 3d designs of mechanical parts and assemblies' ) ;
#170 = DIRECTION ( 'NONE',  ( -4.275831445896958607E-31, -1.000000000000000000, -1.224646799147353207E-16 ) ) ;
#171 = APPROVAL_STATUS ( 'not_yet_approved' ) ;
#172 = AXIS2_PLACEMENT_3D ( 'NONE', #40, #87, #113 ) ;
#173 = COORDINATED_UNIVERSAL_TIME_OFFSET ( 1, 0, .AHEAD. ) ;
#174 = DIRECTION ( 'NONE',  ( 0.0000000000000000000, -1.000000000000000000, 0.0000000000000000000 ) ) ;
#175 = CARTESIAN_POINT ( 'NONE',  ( 7.911785410657825390E-14, -2.892507354208672546E-15, 22.66025403784433223 ) ) ;
#176 = DIRECTION ( 'NONE',  ( 0.0000000000000000000, 1.000000000000000000, 0.0000000000000000000 ) ) ;
#177 = DIRECTION ( 'NONE',  ( -3.491481338843133355E-15, 1.224646799147353207E-16, -1.000000000000000000 ) ) ;
#178 = ADVANCED_FACE ( 'NONE', ( #49 ), #129, .F. ) ;
#179 = COORDINATED_UNIVERSAL_TIME_OFFSET ( 1, 0, .AHEAD. ) ;
#180 = EDGE_CURVE ( 'NONE', #149, #149, #83, .T. ) ;
#181 = DIRECTION ( 'NONE',  ( 3.491481338843133355E-15, -1.276467311168695266E-16, 1.000000000000000000 ) ) ;
#182 = AXIS2_PLACEMENT_3D ( 'NONE', #100, #51, #176 ) ;
#183 = SECURITY_CLASSIFICATION_LEVEL ( 'unclassified' ) ;
#184 = CC_DESIGN_APPROVAL ( #202, ( #150 ) ) ;
#185 = COORDINATED_UNIVERSAL_TIME_OFFSET ( 1, 0, .AHEAD. ) ;
#186 = COORDINATED_UNIVERSAL_TIME_OFFSET ( 1, 0, .AHEAD. ) ;
#187 = FACE_OUTER_BOUND ( 'NONE', #8, .T. ) ;
#188 = APPROVAL_ROLE ( '' ) ;
#189 = PERSON_AND_ORGANIZATION ( #156, #141 ) ;
#190 = ORIENTED_EDGE ( 'NONE', *, *, #120, .F. ) ;
#191 = AXIS2_PLACEMENT_3D ( 'NONE', #163, #201, #213 ) ;
#192 = CONICAL_SURFACE ( 'NONE', #194, 5.499999999999996447, 0.2617993877991501295 ) ;
#193 = DIRECTION ( 'NONE',  ( 0.0000000000000000000, 1.000000000000000000, 0.0000000000000000000 ) ) ;
#194 = AXIS2_PLACEMENT_3D ( 'NONE', #175, #181, #138 ) ;
#195 = APPROVAL_DATE_TIME ( #39, #198 ) ;
#196 = AXIS2_PLACEMENT_3D ( 'NONE', #23, #147, #73 ) ;
#197 = FACE_OUTER_BOUND ( 'NONE', #60, .T. ) ;
#198 = APPROVAL ( #143, 'UNSPECIFIED' ) ;
#199 = AXIS2_PLACEMENT_3D ( 'NONE', #77, #27, #167 ) ;
#200 = DIRECTION ( 'NONE',  ( 0.0000000000000000000, -1.000000000000000000, 0.0000000000000000000 ) ) ;
#201 = DIRECTION ( 'NONE',  ( 0.0000000000000000000, 0.0000000000000000000, 1.000000000000000000 ) ) ;
#202 = APPROVAL ( #55, 'UNSPECIFIED' ) ;
#203 = DIRECTION ( 'NONE',  ( -3.491481338843133355E-15, 1.224646799147353207E-16, -1.000000000000000000 ) ) ;
#204 = DIRECTION ( 'NONE',  ( 3.491481338843133355E-15, -1.224646799147353207E-16, 1.000000000000000000 ) ) ;
#205 = CARTESIAN_POINT ( 'NONE',  ( 1.396592535537253342E-14, -5.105869244674781062E-16, 4.000000000000000000 ) ) ;
#206 = DIRECTION ( 'NONE',  ( -3.491481338843133355E-15, 1.224646799147353207E-16, -1.000000000000000000 ) ) ;
#207 = EDGE_CURVE ( 'NONE', #109, #109, #26, .T. ) ;
#208 = FACE_OUTER_BOUND ( 'NONE', #165, .T. ) ;
#209 = CARTESIAN_POINT ( 'NONE',  ( 1.047444401652940007E-13, 1.199999999999990186, 30.00000000000000000 ) ) ;
#210 = DIRECTION ( 'NONE',  ( 3.491481338843133355E-15, -1.276467311168695266E-16, 1.000000000000000000 ) ) ;
#211 = ADVANCED_FACE ( 'NONE', ( #3, #137 ), #84, .T. ) ;
#212 = PLANE ( 'NONE',  #161 ) ;
#213 = DIRECTION ( 'NONE',  ( 1.000000000000000000, 0.0000000000000000000, 0.0000000000000000000 ) ) ;
#214 = ORIENTED_EDGE ( 'NONE', *, *, #180, .T. ) ;
#215 = PRODUCT_RELATED_PRODUCT_CATEGORY ( 'detail', '', ( #142 ) ) ;
#216 = LOCAL_TIME ( 10, 33, 41.00000000000000000, #179 ) ;
#217 = EDGE_LOOP ( 'NONE', ( #190 ) ) ;
#218 = CALENDAR_DATE ( 2021, 8, 12 ) ;
#219 = ADVANCED_FACE ( 'NONE', ( #208, #19 ), #98, .T. ) ;
#220 = DATE_AND_TIME ( #218, #216 ) ;
#221 = CLOSED_SHELL ( 'NONE', ( #166, #79, #88 ) ) ;
#222 = SHAPE_DEFINITION_REPRESENTATION ( #104, #160 ) ;
#223 = VERTEX_POINT ( 'NONE', #78 ) ;
ENDSEC;
END-ISO-10303-21;
