ISO-10303-21;
HEADER;
FILE_DESCRIPTION (( 'STEP AP203' ),
    '1' );
FILE_NAME ('37861.step',
    '2021-09-03T07:22:02',
    ( '' ),
    ( '' ),
    'SwSTEP 2.0',
    'SolidWorks 2019',
    '' );
FILE_SCHEMA (( 'CONFIG_CONTROL_DESIGN' ));
ENDSEC;

DATA;
#1 = ADVANCED_FACE ( 'NONE', ( #2 ), #108, .T. ) ;
#2 = FACE_OUTER_BOUND ( 'NONE', #35, .T. ) ;
#3 = LOCAL_TIME ( 9, 22, 2.000000000000000000, #198 ) ;
#4 = FACE_OUTER_BOUND ( 'NONE', #49, .T. ) ;
#5 = DIRECTION ( 'NONE',  ( -3.491481338843133355E-15, 1.224646799147353207E-16, -1.000000000000000000 ) ) ;
#6 = DIRECTION ( 'NONE',  ( -3.491481338843133355E-15, 1.224646799147353207E-16, -1.000000000000000000 ) ) ;
#7 = APPROVAL_DATE_TIME ( #292, #208 ) ;
#8 = FACE_OUTER_BOUND ( 'NONE', #161, .T. ) ;
#9 = CLOSED_SHELL ( 'NONE', ( #204, #332, #305, #91, #298, #229 ) ) ;
#10 = AXIS2_PLACEMENT_3D ( 'NONE', #70, #114, #193 ) ;
#11 = CARTESIAN_POINT ( 'NONE',  ( 8.933700359468666614E-15, -0.1749999999999906353, 5.000000000000000888 ) ) ;
#12 = EDGE_CURVE ( 'NONE', #257, #237, #62, .T. ) ;
#13 = LINE ( 'NONE', #140, #164 ) ;
#14 = CARTESIAN_POINT ( 'NONE',  ( 0.0000000000000000000, 0.0000000000000000000, 0.0000000000000000000 ) ) ;
#15 = CARTESIAN_POINT ( 'NONE',  ( 0.0000000000000000000, 0.0000000000000000000, 0.0000000000000000000 ) ) ;
#16 = COORDINATED_UNIVERSAL_TIME_OFFSET ( 1, 0, .AHEAD. ) ;
#17 = CARTESIAN_POINT ( 'NONE',  ( 1.043952920314096684E-13, -3.661693929450585821E-15, 29.89999999999999503 ) ) ;
#18 = ORIENTED_EDGE ( 'NONE', *, *, #115, .T. ) ;
#19 = DESIGN_CONTEXT ( 'detailed design', #175, 'design' ) ;
#20 = CARTESIAN_POINT ( 'NONE',  ( 1.043952920314096684E-13, -3.661693929450585821E-15, 29.89999999999999503 ) ) ;
#21 = CYLINDRICAL_SURFACE ( 'NONE', #26, 0.1749999999999897193 ) ;
#22 = CALENDAR_DATE ( 2021, 3, 9 ) ;
#23 = COORDINATED_UNIVERSAL_TIME_OFFSET ( 1, 0, .AHEAD. ) ;
#24 = EDGE_CURVE ( 'NONE', #260, #276, #264, .T. ) ;
#25 = FACE_OUTER_BOUND ( 'NONE', #308, .T. ) ;
#26 = AXIS2_PLACEMENT_3D ( 'NONE', #15, #330, #53 ) ;
#27 = LOCAL_TIME ( 9, 22, 2.000000000000000000, #223 ) ;
#28 = ORIENTED_EDGE ( 'NONE', *, *, #267, .F. ) ;
#29 = FACE_OUTER_BOUND ( 'NONE', #133, .T. ) ;
#30 = DIRECTION ( 'NONE',  ( -3.491481338843133355E-15, 1.224646799147353207E-16, -1.000000000000000000 ) ) ;
#31 = ADVANCED_FACE ( 'NONE', ( #324 ), #228, .T. ) ;
#32 = EDGE_LOOP ( 'NONE', ( #45, #288 ) ) ;
#33 = CIRCLE ( 'NONE', #56, 0.1749999999999900246 ) ;
#34 = DIRECTION ( 'NONE',  ( -3.491481338843133355E-15, 1.224646799147353207E-16, -1.000000000000000000 ) ) ;
#35 = EDGE_LOOP ( 'NONE', ( #259, #196, #18, #236 ) ) ;
#36 = MECHANICAL_CONTEXT ( 'NONE', #278, 'mechanical' ) ;
#37 = ORIENTED_EDGE ( 'NONE', *, *, #12, .T. ) ;
#38 = CARTESIAN_POINT ( 'NONE',  ( 1.045851741833411670E-13, -0.07499999999999648614, 30.00000000000000000 ) ) ;
#39 = AXIS2_PLACEMENT_3D ( 'NONE', #300, #251, #128 ) ;
#40 = LOCAL_TIME ( 9, 22, 2.000000000000000000, #206 ) ;
#41 = PERSON_AND_ORGANIZATION ( #151, #309 ) ;
#42 = CARTESIAN_POINT ( 'NONE',  ( 1.043952920314096684E-13, 0.1749999999999893863, 29.89999999999999503 ) ) ;
#43 = EDGE_CURVE ( 'NONE', #276, #337, #54, .T. ) ;
#44 = FACE_OUTER_BOUND ( 'NONE', #32, .T. ) ;
#45 = ORIENTED_EDGE ( 'NONE', *, *, #57, .T. ) ;
#46 = APPROVAL ( #102, 'UNSPECIFIED' ) ;
#47 = DIRECTION ( 'NONE',  ( -3.491481338843133355E-15, 1.224646799147353207E-16, -1.000000000000000000 ) ) ;
#48 = DIRECTION ( 'NONE',  ( 3.491481338843133355E-15, -1.224646799147353207E-16, 1.000000000000000000 ) ) ;
#49 = EDGE_LOOP ( 'NONE', ( #73, #93, #52, #235 ) ) ;
#50 = AXIS2_PLACEMENT_3D ( 'NONE', #17, #227, #129 ) ;
#51 = DATE_AND_TIME ( #22, #40 ) ;
#52 = ORIENTED_EDGE ( 'NONE', *, *, #81, .F. ) ;
#53 = DIRECTION ( 'NONE',  ( 4.275831445896958607E-31, 1.000000000000000000, 1.224646799147353207E-16 ) ) ;
#54 = LINE ( 'NONE', #180, #99 ) ;
#55 = EDGE_LOOP ( 'NONE', ( #266, #169, #37 ) ) ;
#56 = AXIS2_PLACEMENT_3D ( 'NONE', #250, #77, #60 ) ;
#57 = EDGE_CURVE ( 'NONE', #217, #329, #33, .T. ) ;
#58 = DIRECTION ( 'NONE',  ( -3.491481338843133355E-15, 1.224646799147353207E-16, -1.000000000000000000 ) ) ;
#59 = APPROVAL ( #159, 'UNSPECIFIED' ) ;
#60 = DIRECTION ( 'NONE',  ( 0.0000000000000000000, 1.000000000000000000, 0.0000000000000000000 ) ) ;
#61 = DIRECTION ( 'NONE',  ( 1.903218546456018378E-15, 0.8571673007021104462, 0.5150380749100572642 ) ) ;
#62 = CIRCLE ( 'NONE', #243, 0.1749999999999893863 ) ;
#63 = APPROVAL_PERSON_ORGANIZATION ( #269, #59, #297 ) ;
#64 = ORIENTED_EDGE ( 'NONE', *, *, #57, .F. ) ;
#65 = LINE ( 'NONE', #85, #95 ) ;
#66 = ORIENTED_EDGE ( 'NONE', *, *, #115, .F. ) ;
#67 = DIRECTION ( 'NONE',  ( -3.491481338843133355E-15, 1.224646799147353207E-16, -1.000000000000000000 ) ) ;
#68 = EDGE_LOOP ( 'NONE', ( #253, #207, #64, #281 ) ) ;
#69 = CARTESIAN_POINT ( 'NONE',  ( 0.0000000000000000000, 0.0000000000000000000, 0.0000000000000000000 ) ) ;
#70 = CARTESIAN_POINT ( 'NONE',  ( 0.0000000000000000000, 0.0000000000000000000, 0.0000000000000000000 ) ) ;
#71 = DIRECTION ( 'NONE',  ( 5.502656983963865068E-31, 1.000000000000000000, 1.548860246407957507E-16 ) ) ;
#72 = AXIS2_PLACEMENT_3D ( 'NONE', #328, #47, #245 ) ;
#73 = ORIENTED_EDGE ( 'NONE', *, *, #212, .T. ) ;
#74 = AXIS2_PLACEMENT_3D ( 'NONE', #106, #30, #239 ) ;
#75 = DIRECTION ( 'NONE',  ( -3.491481338843133355E-15, 1.224646799147353207E-16, -1.000000000000000000 ) ) ;
#76 = CC_DESIGN_APPROVAL ( #208, ( #331 ) ) ;
#77 = DIRECTION ( 'NONE',  ( -3.491481338843133355E-15, 1.224646799147353207E-16, -1.000000000000000000 ) ) ;
#78 = DIRECTION ( 'NONE',  ( -5.502656983963865068E-31, -1.000000000000000000, -1.548860246407957507E-16 ) ) ;
#79 = DIRECTION ( 'NONE',  ( -2.468850131082297292E-15, 0.7071067811865383579, -0.7071067811865566766 ) ) ;
#80 = PERSON_AND_ORGANIZATION ( #151, #309 ) ;
#81 = EDGE_CURVE ( 'NONE', #337, #336, #144, .T. ) ;
#82 = AXIS2_PLACEMENT_3D ( 'NONE', #113, #219, #320 ) ;
#83 = ORIENTED_EDGE ( 'NONE', *, *, #43, .T. ) ;
#84 = DIRECTION ( 'NONE',  ( -3.491481338843133355E-15, 1.224646799147353207E-16, -1.000000000000000000 ) ) ;
#85 = CARTESIAN_POINT ( 'NONE',  ( 2.143131898507757364E-17, -0.1749999999999915512, -2.143131898507771847E-17 ) ) ;
#86 = VERTEX_POINT ( 'NONE', #232 ) ;
#87 = LINE ( 'NONE', #213, #304 ) ;
#88 = AXIS2_PLACEMENT_3D ( 'NONE', #171, #145, #146 ) ;
#89 = ORIENTED_EDGE ( 'NONE', *, *, #319, .T. ) ;
#90 = PERSON_AND_ORGANIZATION_ROLE ( 'classification_officer' ) ;
#91 = ADVANCED_FACE ( 'NONE', ( #160 ), #101, .T. ) ;
#92 = LINE ( 'NONE', #246, #136 ) ;
#93 = ORIENTED_EDGE ( 'NONE', *, *, #109, .T. ) ;
#94 = DIRECTION ( 'NONE',  ( 1.798245827342155978E-15, -0.8571673007021106683, 0.5150380749100570421 ) ) ;
#95 = VECTOR ( 'NONE', #67, 1000.000000000000000 ) ;
#96 = CC_DESIGN_APPROVAL ( #59, ( #191 ) ) ;
#97 = PERSON_AND_ORGANIZATION ( #151, #309 ) ;
#98 = CALENDAR_DATE ( 2021, 3, 9 ) ;
#99 = VECTOR ( 'NONE', #79, 1000.000000000000000 ) ;
#100 = APPROVAL_PERSON_ORGANIZATION ( #203, #46, #122 ) ;
#101 = CYLINDRICAL_SURFACE ( 'NONE', #131, 0.1749999999999915512 ) ;
#102 = APPROVAL_STATUS ( 'not_yet_approved' ) ;
#103 = EDGE_CURVE ( 'NONE', #336, #337, #107, .T. ) ;
#104 = CARTESIAN_POINT ( 'NONE',  ( 7.482705030319238342E-32, 0.1749999999999897193, 2.143131898507742265E-17 ) ) ;
#105 = CONICAL_SURFACE ( 'NONE', #183, 0.1749999999999893863, 1.029744258676650981 ) ;
#106 = CARTESIAN_POINT ( 'NONE',  ( 1.745740669421566993E-14, -6.123233995736767268E-16, 5.000000000000000888 ) ) ;
#107 = CIRCLE ( 'NONE', #263, 0.1749999999999930500 ) ;
#108 = CYLINDRICAL_SURFACE ( 'NONE', #214, 0.1749999999999897193 ) ;
#109 = EDGE_CURVE ( 'NONE', #260, #336, #153, .T. ) ;
#110 = EDGE_CURVE ( 'NONE', #86, #237, #335, .T. ) ;
#111 = DATE_TIME_ROLE ( 'classification_date' ) ;
#112 = AXIS2_PLACEMENT_3D ( 'NONE', #322, #48, #321 ) ;
#113 = CARTESIAN_POINT ( 'NONE',  ( 1.047444401652940007E-13, -3.673940397442059178E-15, 30.00000000000000000 ) ) ;
#114 = DIRECTION ( 'NONE',  ( 0.0000000000000000000, 0.0000000000000000000, 1.000000000000000000 ) ) ;
#115 = EDGE_CURVE ( 'NONE', #291, #237, #275, .T. ) ;
#116 = CARTESIAN_POINT ( 'NONE',  ( 1.745740669421566993E-14, -6.123233995736767268E-16, 5.000000000000000888 ) ) ;
#117 = PERSON_AND_ORGANIZATION ( #151, #309 ) ;
#118 = PLANE ( 'NONE',  #88 ) ;
#119 = CIRCLE ( 'NONE', #168, 0.1749999999999900246 ) ;
#120 = FACE_OUTER_BOUND ( 'NONE', #68, .T. ) ;
#121 = ADVANCED_FACE ( 'NONE', ( #25 ), #21, .T. ) ;
#122 = APPROVAL_ROLE ( '' ) ;
#123 = UNCERTAINTY_MEASURE_WITH_UNIT (LENGTH_MEASURE( 1.000000000000000082E-05 ), #313, 'distance_accuracy_value', 'NONE');
#124 = DIRECTION ( 'NONE',  ( -3.491481338843133355E-15, 1.224646799147353207E-16, -1.000000000000000000 ) ) ;
#125 = CONICAL_SURFACE ( 'NONE', #307, 0.07499999999999280853, 0.7853981633974351784 ) ;
#126 = ADVANCED_FACE ( 'NONE', ( #302 ), #105, .T. ) ;
#127 = ORIENTED_EDGE ( 'NONE', *, *, #143, .F. ) ;
#128 = DIRECTION ( 'NONE',  ( -5.502656983963865068E-31, -1.000000000000000000, -1.548860246407957507E-16 ) ) ;
#129 = DIRECTION ( 'NONE',  ( 0.0000000000000000000, 1.000000000000000000, 0.0000000000000000000 ) ) ;
#130 = CARTESIAN_POINT ( 'NONE',  ( 3.671313867515611741E-16, -1.287723559195080418E-17, 0.1051506083298175132 ) ) ;
#131 = AXIS2_PLACEMENT_3D ( 'NONE', #154, #124, #178 ) ;
#132 = CC_DESIGN_APPROVAL ( #46, ( #218 ) ) ;
#133 = EDGE_LOOP ( 'NONE', ( #186, #166 ) ) ;
#134 = PLANE ( 'NONE',  #192 ) ;
#135 = CARTESIAN_POINT ( 'NONE',  ( 1.047444401652940007E-13, -3.673940397442059178E-15, 30.00000000000000000 ) ) ;
#136 = VECTOR ( 'NONE', #94, 1000.000000000000000 ) ;
#137 = CC_DESIGN_PERSON_AND_ORGANIZATION_ASSIGNMENT ( #241, #90, ( #331 ) ) ;
#138 = DIRECTION ( 'NONE',  ( 4.275831445896958607E-31, 1.000000000000000000, 1.224646799147353207E-16 ) ) ;
#139 = DATE_AND_TIME ( #296, #27 ) ;
#140 = CARTESIAN_POINT ( 'NONE',  ( 7.482705030319316070E-32, 0.1749999999999915512, 2.143131898507764451E-17 ) ) ;
#141 = ORIENTED_EDGE ( 'NONE', *, *, #240, .F. ) ;
#142 = APPROVAL_ROLE ( '' ) ;
#143 = EDGE_CURVE ( 'NONE', #237, #257, #258, .T. ) ;
#144 = CIRCLE ( 'NONE', #50, 0.1749999999999930500 ) ;
#145 = DIRECTION ( 'NONE',  ( 3.491481338843133355E-15, -1.224646799147353207E-16, 1.000000000000000000 ) ) ;
#146 = DIRECTION ( 'NONE',  ( -4.275831445896958607E-31, -1.000000000000000000, -1.224646799147353207E-16 ) ) ;
#147 = CARTESIAN_POINT ( 'NONE',  ( 1.745740669421566993E-14, -6.123233995736767268E-16, 5.000000000000000888 ) ) ;
#148 = ORIENTED_EDGE ( 'NONE', *, *, #319, .F. ) ;
#149 = PRODUCT_RELATED_PRODUCT_CATEGORY ( 'detail', '', ( #242 ) ) ;
#150 = DIRECTION ( 'NONE',  ( -3.491481338843133355E-15, 1.224646799147353207E-16, -1.000000000000000000 ) ) ;
#151 = PERSON ( 'UNSPECIFIED', 'UNSPECIFIED', 'UNSPECIFIED', ('UNSPECIFIED'), ('UNSPECIFIED'), ('UNSPECIFIED') ) ;
#152 = APPLICATION_PROTOCOL_DEFINITION ( 'international standard', 'config_control_design', 1994, #175 ) ;
#153 = LINE ( 'NONE', #274, #155 ) ;
#154 = CARTESIAN_POINT ( 'NONE',  ( 0.0000000000000000000, 0.0000000000000000000, 0.0000000000000000000 ) ) ;
#155 = VECTOR ( 'NONE', #158, 999.9999999999998863 ) ;
#156 = APPROVAL_PERSON_ORGANIZATION ( #117, #208, #142 ) ;
#157 = DATE_AND_TIME ( #98, #194 ) ;
#158 = DIRECTION ( 'NONE',  ( -2.382254525458749813E-15, -0.7071067811865382469, -0.7071067811865568986 ) ) ;
#159 = APPROVAL_STATUS ( 'not_yet_approved' ) ;
#160 = FACE_OUTER_BOUND ( 'NONE', #295, .T. ) ;
#161 = EDGE_LOOP ( 'NONE', ( #256, #317, #83, #283 ) ) ;
#162 = PERSON_AND_ORGANIZATION ( #151, #309 ) ;
#163 = CARTESIAN_POINT ( 'NONE',  ( 1.745740669421566993E-14, 0.1749999999999893863, 5.000000000000000888 ) ) ;
#164 = VECTOR ( 'NONE', #290, 1000.000000000000000 ) ;
#165 = LOCAL_TIME ( 9, 22, 2.000000000000000000, #16 ) ;
#166 = ORIENTED_EDGE ( 'NONE', *, *, #24, .F. ) ;
#167 = CC_DESIGN_DATE_AND_TIME_ASSIGNMENT ( #176, #333, ( #191 ) ) ;
#168 = AXIS2_PLACEMENT_3D ( 'NONE', #116, #294, #325 ) ;
#169 = ORIENTED_EDGE ( 'NONE', *, *, #285, .T. ) ;
#170 = EDGE_CURVE ( 'NONE', #329, #217, #286, .T. ) ;
#171 = CARTESIAN_POINT ( 'NONE',  ( 1.745740669421566993E-14, 1.312289809829039536E-33, 5.000000000000000888 ) ) ;
#172 =( NAMED_UNIT ( * ) PLANE_ANGLE_UNIT ( ) SI_UNIT ( $, .RADIAN. ) );
#173 = CARTESIAN_POINT ( 'NONE',  ( 6.094778068179699713E-14, -0.1749999999999967137, 29.89999999999999503 ) ) ;
#174 = CIRCLE ( 'NONE', #273, 0.1749999999999900246 ) ;
#175 = APPLICATION_CONTEXT ( 'configuration controlled 3d designs of mechanical parts and assemblies' ) ;
#176 = DATE_AND_TIME ( #226, #165 ) ;
#177 =( GEOMETRIC_REPRESENTATION_CONTEXT ( 3 ) GLOBAL_UNCERTAINTY_ASSIGNED_CONTEXT ( ( #123 ) ) GLOBAL_UNIT_ASSIGNED_CONTEXT ( ( #313, #172, #249 ) ) REPRESENTATION_CONTEXT ( 'NONE', 'WORKASPACE' ) );
#178 = DIRECTION ( 'NONE',  ( 4.275831445896958607E-31, 1.000000000000000000, 1.224646799147353207E-16 ) ) ;
#179 = EDGE_CURVE ( 'NONE', #314, #257, #87, .T. ) ;
#180 = CARTESIAN_POINT ( 'NONE',  ( 1.047444401652940007E-13, 0.07499999999998913092, 30.00000000000000000 ) ) ;
#181 = DIRECTION ( 'NONE',  ( 0.0000000000000000000, 1.000000000000000000, 0.0000000000000000000 ) ) ;
#182 = EDGE_LOOP ( 'NONE', ( #272, #230, #261 ) ) ;
#183 = AXIS2_PLACEMENT_3D ( 'NONE', #130, #299, #78 ) ;
#184 = CARTESIAN_POINT ( 'NONE',  ( 3.671313867515611741E-16, -1.287723559195080418E-17, 0.1051506083298175132 ) ) ;
#185 = PERSON_AND_ORGANIZATION_ROLE ( 'creator' ) ;
#186 = ORIENTED_EDGE ( 'NONE', *, *, #212, .F. ) ;
#187 = ORIENTED_EDGE ( 'NONE', *, *, #179, .T. ) ;
#188 = DIRECTION ( 'NONE',  ( -3.491481338843133355E-15, 1.224646799147353207E-16, -1.000000000000000000 ) ) ;
#189 = AXIS2_PLACEMENT_3D ( 'NONE', #184, #234, #284 ) ;
#190 = CARTESIAN_POINT ( 'NONE',  ( 3.885627057366386615E-16, 0.1749999999999893863, 0.1051506083298175409 ) ) ;
#191 = PRODUCT_DEFINITION ( 'UNKNOWN', '', #218, #19 ) ;
#192 = AXIS2_PLACEMENT_3D ( 'NONE', #211, #188, #279 ) ;
#193 = DIRECTION ( 'NONE',  ( 1.000000000000000000, 0.0000000000000000000, 0.0000000000000000000 ) ) ;
#194 = LOCAL_TIME ( 9, 22, 2.000000000000000000, #23 ) ;
#195 = CARTESIAN_POINT ( 'NONE',  ( 1.047444401652940007E-13, 0.07499999999998913092, 30.00000000000000000 ) ) ;
#196 = ORIENTED_EDGE ( 'NONE', *, *, #267, .T. ) ;
#197 = CARTESIAN_POINT ( 'NONE',  ( 3.671313867515610755E-16, -0.1749999999999893863, 0.1051506083298174854 ) ) ;
#198 = COORDINATED_UNIVERSAL_TIME_OFFSET ( 1, 0, .AHEAD. ) ;
#199 = PERSON_AND_ORGANIZATION_ROLE ( 'design_supplier' ) ;
#200 = CC_DESIGN_SECURITY_CLASSIFICATION ( #331, ( #218 ) ) ;
#201 = CC_DESIGN_PERSON_AND_ORGANIZATION_ASSIGNMENT ( #162, #199, ( #218 ) ) ;
#202 = CYLINDRICAL_SURFACE ( 'NONE', #316, 0.1749999999999915512 ) ;
#203 = PERSON_AND_ORGANIZATION ( #151, #309 ) ;
#204 = ADVANCED_FACE ( 'NONE', ( #4 ), #125, .T. ) ;
#205 = CLOSED_SHELL ( 'NONE', ( #121, #126, #31, #1, #244 ) ) ;
#206 = COORDINATED_UNIVERSAL_TIME_OFFSET ( 1, 0, .AHEAD. ) ;
#207 = ORIENTED_EDGE ( 'NONE', *, *, #240, .T. ) ;
#208 = APPROVAL ( #287, 'UNSPECIFIED' ) ;
#209 = CARTESIAN_POINT ( 'NONE',  ( 3.885627057366386615E-16, 0.1749999999999893863, 0.1051506083298175409 ) ) ;
#210 = CARTESIAN_POINT ( 'NONE',  ( 1.047444401652940007E-13, -3.673940397442059178E-15, 30.00000000000000000 ) ) ;
#211 = CARTESIAN_POINT ( 'NONE',  ( 1.047444401652940007E-13, 5.624099184980876397E-34, 30.00000000000000000 ) ) ;
#212 = EDGE_CURVE ( 'NONE', #276, #260, #334, .T. ) ;
#213 = CARTESIAN_POINT ( 'NONE',  ( 2.143131898507735177E-17, -0.1749999999999897193, -2.143131898507749352E-17 ) ) ;
#214 = AXIS2_PLACEMENT_3D ( 'NONE', #69, #34, #138 ) ;
#215 = FACE_OUTER_BOUND ( 'NONE', #231, .T. ) ;
#216 = DIRECTION ( 'NONE',  ( 0.0000000000000000000, 1.000000000000000000, 0.0000000000000000000 ) ) ;
#217 = VERTEX_POINT ( 'NONE', #163 ) ;
#218 = PRODUCT_DEFINITION_FORMATION_WITH_SPECIFIED_SOURCE ( 'ANY', '', #242, .NOT_KNOWN. ) ;
#219 = DIRECTION ( 'NONE',  ( -3.491481338843133355E-15, 1.224646799147353207E-16, -1.000000000000000000 ) ) ;
#220 = ORIENTED_EDGE ( 'NONE', *, *, #170, .F. ) ;
#221 = PERSON_AND_ORGANIZATION_ROLE ( 'design_owner' ) ;
#222 = CARTESIAN_POINT ( 'NONE',  ( 6.094778068179755249E-14, -0.1749999999999906353, 5.000000000000000888 ) ) ;
#223 = COORDINATED_UNIVERSAL_TIME_OFFSET ( 1, 0, .AHEAD. ) ;
#224 = CONICAL_SURFACE ( 'NONE', #82, 0.07499999999999280853, 0.7853981633974351784 ) ;
#225 = DIRECTION ( 'NONE',  ( -3.491481338843133355E-15, 1.224646799147353207E-16, -1.000000000000000000 ) ) ;
#226 = CALENDAR_DATE ( 2021, 3, 9 ) ;
#227 = DIRECTION ( 'NONE',  ( -3.491481338843133355E-15, 1.224646799147353207E-16, -1.000000000000000000 ) ) ;
#228 = CONICAL_SURFACE ( 'NONE', #39, 0.1749999999999893863, 1.029744258676650981 ) ;
#229 = ADVANCED_FACE ( 'NONE', ( #29 ), #134, .F. ) ;
#230 = ORIENTED_EDGE ( 'NONE', *, *, #110, .T. ) ;
#231 = EDGE_LOOP ( 'NONE', ( #148, #28 ) ) ;
#232 = CARTESIAN_POINT ( 'NONE',  ( 0.0000000000000000000, 0.0000000000000000000, 0.0000000000000000000 ) ) ;
#233 = AXIS2_PLACEMENT_3D ( 'NONE', #135, #84, #277 ) ;
#234 = DIRECTION ( 'NONE',  ( -3.491481338843133355E-15, 1.224646799147353207E-16, -1.000000000000000000 ) ) ;
#235 = ORIENTED_EDGE ( 'NONE', *, *, #43, .F. ) ;
#236 = ORIENTED_EDGE ( 'NONE', *, *, #12, .F. ) ;
#237 = VERTEX_POINT ( 'NONE', #190 ) ;
#238 = CARTESIAN_POINT ( 'NONE',  ( 3.671313867515611741E-16, -1.287723559195080418E-17, 0.1051506083298175132 ) ) ;
#239 = DIRECTION ( 'NONE',  ( 0.0000000000000000000, 1.000000000000000000, 0.0000000000000000000 ) ) ;
#240 = EDGE_CURVE ( 'NONE', #336, #329, #65, .T. ) ;
#241 = PERSON_AND_ORGANIZATION ( #151, #309 ) ;
#242 = PRODUCT ( '37861', '37861', '', ( #36 ) ) ;
#243 = AXIS2_PLACEMENT_3D ( 'NONE', #238, #5, #71 ) ;
#244 = ADVANCED_FACE ( 'NONE', ( #215 ), #311, .T. ) ;
#245 = DIRECTION ( 'NONE',  ( 0.0000000000000000000, 1.000000000000000000, 0.0000000000000000000 ) ) ;
#246 = CARTESIAN_POINT ( 'NONE',  ( 3.671313867515610755E-16, -0.1749999999999893863, 0.1051506083298174854 ) ) ;
#247 = CARTESIAN_POINT ( 'NONE',  ( 1.745740669421566993E-14, 0.1749999999999893863, 5.000000000000000888 ) ) ;
#248 = CC_DESIGN_PERSON_AND_ORGANIZATION_ASSIGNMENT ( #41, #221, ( #242 ) ) ;
#249 =( NAMED_UNIT ( * ) SI_UNIT ( $, .STERADIAN. ) SOLID_ANGLE_UNIT ( ) );
#250 = CARTESIAN_POINT ( 'NONE',  ( 1.745740669421566993E-14, -6.123233995736767268E-16, 5.000000000000000888 ) ) ;
#251 = DIRECTION ( 'NONE',  ( 3.491481338843133355E-15, -1.224646799147353207E-16, 1.000000000000000000 ) ) ;
#252 = PERSON_AND_ORGANIZATION_ROLE ( 'creator' ) ;
#253 = ORIENTED_EDGE ( 'NONE', *, *, #81, .T. ) ;
#254 = ORIENTED_EDGE ( 'NONE', *, *, #103, .T. ) ;
#255 = APPROVAL_DATE_TIME ( #157, #59 ) ;
#256 = ORIENTED_EDGE ( 'NONE', *, *, #109, .F. ) ;
#257 = VERTEX_POINT ( 'NONE', #197 ) ;
#258 = CIRCLE ( 'NONE', #189, 0.1749999999999893863 ) ;
#259 = ORIENTED_EDGE ( 'NONE', *, *, #179, .F. ) ;
#260 = VERTEX_POINT ( 'NONE', #38 ) ;
#261 = ORIENTED_EDGE ( 'NONE', *, *, #143, .T. ) ;
#262 = APPLICATION_PROTOCOL_DEFINITION ( 'international standard', 'config_control_design', 1994, #278 ) ;
#263 = AXIS2_PLACEMENT_3D ( 'NONE', #20, #58, #181 ) ;
#264 = CIRCLE ( 'NONE', #72, 0.07499999999999280853 ) ;
#265 = CC_DESIGN_PERSON_AND_ORGANIZATION_ASSIGNMENT ( #97, #252, ( #191 ) ) ;
#266 = ORIENTED_EDGE ( 'NONE', *, *, #110, .F. ) ;
#267 = EDGE_CURVE ( 'NONE', #314, #291, #174, .T. ) ;
#268 = VECTOR ( 'NONE', #75, 1000.000000000000000 ) ;
#269 = PERSON_AND_ORGANIZATION ( #151, #309 ) ;
#270 = MANIFOLD_SOLID_BREP ( 'Corps-Déplacer/Copier1[1]', #9 ) ;
#271 = MANIFOLD_SOLID_BREP ( 'Corps-Déplacer/Copier1[2]', #205 ) ;
#272 = ORIENTED_EDGE ( 'NONE', *, *, #285, .F. ) ;
#273 = AXIS2_PLACEMENT_3D ( 'NONE', #147, #150, #216 ) ;
#274 = CARTESIAN_POINT ( 'NONE',  ( 1.047536250162875976E-13, -0.07499999999999648614, 30.00000000000000000 ) ) ;
#275 = LINE ( 'NONE', #104, #268 ) ;
#276 = VERTEX_POINT ( 'NONE', #195 ) ;
#277 = DIRECTION ( 'NONE',  ( 0.0000000000000000000, 1.000000000000000000, 0.0000000000000000000 ) ) ;
#278 = APPLICATION_CONTEXT ( 'configuration controlled 3d designs of mechanical parts and assemblies' ) ;
#279 = DIRECTION ( 'NONE',  ( 4.275831445896958607E-31, 1.000000000000000000, 1.224646799147353207E-16 ) ) ;
#280 = PRODUCT_DEFINITION_SHAPE ( 'NONE', 'NONE',  #191 ) ;
#281 = ORIENTED_EDGE ( 'NONE', *, *, #289, .F. ) ;
#282 = ADVANCED_BREP_SHAPE_REPRESENTATION ( '37861', ( #270, #271, #10 ), #177 ) ;
#283 = ORIENTED_EDGE ( 'NONE', *, *, #103, .F. ) ;
#284 = DIRECTION ( 'NONE',  ( 5.502656983963865068E-31, 1.000000000000000000, 1.548860246407957507E-16 ) ) ;
#285 = EDGE_CURVE ( 'NONE', #86, #257, #92, .T. ) ;
#286 = CIRCLE ( 'NONE', #74, 0.1749999999999900246 ) ;
#287 = APPROVAL_STATUS ( 'not_yet_approved' ) ;
#288 = ORIENTED_EDGE ( 'NONE', *, *, #170, .T. ) ;
#289 = EDGE_CURVE ( 'NONE', #337, #217, #13, .T. ) ;
#290 = DIRECTION ( 'NONE',  ( -3.491481338843133355E-15, 1.224646799147353207E-16, -1.000000000000000000 ) ) ;
#291 = VERTEX_POINT ( 'NONE', #247 ) ;
#292 = DATE_AND_TIME ( #293, #3 ) ;
#293 = CALENDAR_DATE ( 2021, 3, 9 ) ;
#294 = DIRECTION ( 'NONE',  ( -3.491481338843133355E-15, 1.224646799147353207E-16, -1.000000000000000000 ) ) ;
#295 = EDGE_LOOP ( 'NONE', ( #141, #254, #301, #220 ) ) ;
#296 = CALENDAR_DATE ( 2021, 3, 9 ) ;
#297 = APPROVAL_ROLE ( '' ) ;
#298 = ADVANCED_FACE ( 'NONE', ( #8 ), #224, .T. ) ;
#299 = DIRECTION ( 'NONE',  ( 3.491481338843133355E-15, -1.224646799147353207E-16, 1.000000000000000000 ) ) ;
#300 = CARTESIAN_POINT ( 'NONE',  ( 3.671313867515611741E-16, -1.287723559195080418E-17, 0.1051506083298175132 ) ) ;
#301 = ORIENTED_EDGE ( 'NONE', *, *, #289, .T. ) ;
#302 = FACE_OUTER_BOUND ( 'NONE', #182, .T. ) ;
#303 = APPROVAL_DATE_TIME ( #51, #46 ) ;
#304 = VECTOR ( 'NONE', #6, 1000.000000000000000 ) ;
#305 = ADVANCED_FACE ( 'NONE', ( #44 ), #118, .F. ) ;
#306 = DIRECTION ( 'NONE',  ( 0.0000000000000000000, 1.000000000000000000, 0.0000000000000000000 ) ) ;
#307 = AXIS2_PLACEMENT_3D ( 'NONE', #210, #310, #306 ) ;
#308 = EDGE_LOOP ( 'NONE', ( #89, #187, #127, #66 ) ) ;
#309 = ORGANIZATION ( 'UNSPECIFIED', 'UNSPECIFIED', '' ) ;
#310 = DIRECTION ( 'NONE',  ( -3.491481338843133355E-15, 1.224646799147353207E-16, -1.000000000000000000 ) ) ;
#311 = PLANE ( 'NONE',  #112 ) ;
#312 = CC_DESIGN_PERSON_AND_ORGANIZATION_ASSIGNMENT ( #80, #185, ( #218 ) ) ;
#313 =( LENGTH_UNIT ( ) NAMED_UNIT ( * ) SI_UNIT ( .MILLI., .METRE. ) );
#314 = VERTEX_POINT ( 'NONE', #11 ) ;
#315 = VECTOR ( 'NONE', #61, 1000.000000000000000 ) ;
#316 = AXIS2_PLACEMENT_3D ( 'NONE', #14, #225, #327 ) ;
#317 = ORIENTED_EDGE ( 'NONE', *, *, #24, .T. ) ;
#318 = SECURITY_CLASSIFICATION_LEVEL ( 'unclassified' ) ;
#319 = EDGE_CURVE ( 'NONE', #291, #314, #119, .T. ) ;
#320 = DIRECTION ( 'NONE',  ( 0.0000000000000000000, 1.000000000000000000, 0.0000000000000000000 ) ) ;
#321 = DIRECTION ( 'NONE',  ( -4.275831445896958607E-31, -1.000000000000000000, -1.224646799147353207E-16 ) ) ;
#322 = CARTESIAN_POINT ( 'NONE',  ( 1.745740669421566993E-14, 1.312289809829039536E-33, 5.000000000000000888 ) ) ;
#323 = SHAPE_DEFINITION_REPRESENTATION ( #280, #282 ) ;
#324 = FACE_OUTER_BOUND ( 'NONE', #55, .T. ) ;
#325 = DIRECTION ( 'NONE',  ( 0.0000000000000000000, 1.000000000000000000, 0.0000000000000000000 ) ) ;
#326 = CC_DESIGN_DATE_AND_TIME_ASSIGNMENT ( #139, #111, ( #331 ) ) ;
#327 = DIRECTION ( 'NONE',  ( 4.275831445896958607E-31, 1.000000000000000000, 1.224646799147353207E-16 ) ) ;
#328 = CARTESIAN_POINT ( 'NONE',  ( 1.047444401652940007E-13, -3.673940397442059178E-15, 30.00000000000000000 ) ) ;
#329 = VERTEX_POINT ( 'NONE', #222 ) ;
#330 = DIRECTION ( 'NONE',  ( -3.491481338843133355E-15, 1.224646799147353207E-16, -1.000000000000000000 ) ) ;
#331 = SECURITY_CLASSIFICATION ( '', '', #318 ) ;
#332 = ADVANCED_FACE ( 'NONE', ( #120 ), #202, .T. ) ;
#333 = DATE_TIME_ROLE ( 'creation_date' ) ;
#334 = CIRCLE ( 'NONE', #233, 0.07499999999999280853 ) ;
#335 = LINE ( 'NONE', #209, #315 ) ;
#336 = VERTEX_POINT ( 'NONE', #173 ) ;
#337 = VERTEX_POINT ( 'NONE', #42 ) ;
ENDSEC;
END-ISO-10303-21;
