ISO-10303-21;
HEADER;
FILE_DESCRIPTION (( 'STEP AP203' ),
    '1' );
FILE_NAME ('378234.step',
    '2021-12-09T09:54:00',
    ( '' ),
    ( '' ),
    'SwSTEP 2.0',
    'SolidWorks 2019',
    '' );
FILE_SCHEMA (( 'CONFIG_CONTROL_DESIGN' ));
ENDSEC;

DATA;
#1 = AXIS2_PLACEMENT_3D ( 'NONE', #44, #162, #29 ) ;
#2 = EDGE_LOOP ( 'NONE', ( #155 ) ) ;
#3 = FACE_OUTER_BOUND ( 'NONE', #176, .T. ) ;
#4 = ORGANIZATION ( 'UNSPECIFIED', 'UNSPECIFIED', '' ) ;
#5 = DIRECTION ( 'NONE',  ( 4.373512576242074128E-31, 1.000000000000000000, 1.252623786811128485E-16 ) ) ;
#6 = DATE_TIME_ROLE ( 'creation_date' ) ;
#7 = DIRECTION ( 'NONE',  ( -3.491481338843133355E-15, 1.252623786811128485E-16, -1.000000000000000000 ) ) ;
#8 = ADVANCED_FACE ( 'NONE', ( #140, #197 ), #160, .T. ) ;
#9 = PERSON_AND_ORGANIZATION ( #142, #4 ) ;
#10 = DIRECTION ( 'NONE',  ( -3.491481338843133355E-15, 1.252623786811128485E-16, -1.000000000000000000 ) ) ;
#11 = APPROVAL_ROLE ( '' ) ;
#12 = PLANE ( 'NONE',  #64 ) ;
#13 = PRODUCT_DEFINITION_FORMATION_WITH_SPECIFIED_SOURCE ( 'ANY', '', #118, .NOT_KNOWN. ) ;
#14 = PERSON_AND_ORGANIZATION_ROLE ( 'creator' ) ;
#15 = AXIS2_PLACEMENT_3D ( 'NONE', #158, #23, #82 ) ;
#16 = CC_DESIGN_PERSON_AND_ORGANIZATION_ASSIGNMENT ( #114, #185, ( #36 ) ) ;
#17 = AXIS2_PLACEMENT_3D ( 'NONE', #95, #128, #40 ) ;
#18 = APPROVAL_DATE_TIME ( #74, #189 ) ;
#19 = ADVANCED_BREP_SHAPE_REPRESENTATION ( '378234', ( #135, #134, #186 ), #111 ) ;
#20 = ORIENTED_EDGE ( 'NONE', *, *, #123, .T. ) ;
#21 = LOCAL_TIME ( 10, 54, 0.0000000000000000000, #148 ) ;
#22 = CC_DESIGN_PERSON_AND_ORGANIZATION_ASSIGNMENT ( #73, #133, ( #13 ) ) ;
#23 = DIRECTION ( 'NONE',  ( -3.491481338843133355E-15, 1.252623786811128485E-16, -1.000000000000000000 ) ) ;
#24 = FACE_BOUND ( 'NONE', #136, .T. ) ;
#25 = VERTEX_POINT ( 'NONE', #72 ) ;
#26 = PERSON_AND_ORGANIZATION ( #142, #4 ) ;
#27 = CARTESIAN_POINT ( 'NONE',  ( 0.0000000000000000000, 0.0000000000000000000, 0.0000000000000000000 ) ) ;
#28 = APPROVAL_STATUS ( 'not_yet_approved' ) ;
#29 = DIRECTION ( 'NONE',  ( -4.373512576242074128E-31, -1.000000000000000000, -1.252623786811128485E-16 ) ) ;
#30 = DATE_AND_TIME ( #184, #121 ) ;
#31 = PERSON_AND_ORGANIZATION ( #142, #4 ) ;
#32 = ADVANCED_FACE ( 'NONE', ( #67 ), #132, .T. ) ;
#33 = CONICAL_SURFACE ( 'NONE', #17, 3.000000000000000444, 0.7853981633974511656 ) ;
#34 = ORIENTED_EDGE ( 'NONE', *, *, #76, .T. ) ;
#35 = ORIENTED_EDGE ( 'NONE', *, *, #123, .F. ) ;
#36 = SECURITY_CLASSIFICATION ( '', '', #59 ) ;
#37 = DIRECTION ( 'NONE',  ( -3.491481338843133355E-15, 1.252623786811128485E-16, -1.000000000000000000 ) ) ;
#38 = CYLINDRICAL_SURFACE ( 'NONE', #77, 3.000000000000000000 ) ;
#39 = ADVANCED_FACE ( 'NONE', ( #100 ), #84, .F. ) ;
#40 = DIRECTION ( 'NONE',  ( 0.0000000000000000000, 1.000000000000000000, 0.0000000000000000000 ) ) ;
#41 = CARTESIAN_POINT ( 'NONE',  ( -6.560268864363111629E-31, 2.353599526927577330E-32, -1.878935680216692850E-16 ) ) ;
#42 =( NAMED_UNIT ( * ) PLANE_ANGLE_UNIT ( ) SI_UNIT ( $, .RADIAN. ) );
#43 = APPROVAL_STATUS ( 'not_yet_approved' ) ;
#44 = CARTESIAN_POINT ( 'NONE',  ( 2.793185071074506684E-14, 2.353599526927575962E-32, 8.000000000000000000 ) ) ;
#45 = CC_DESIGN_DATE_AND_TIME_ASSIGNMENT ( #101, #6, ( #152 ) ) ;
#46 = COORDINATED_UNIVERSAL_TIME_OFFSET ( 1, 0, .AHEAD. ) ;
#47 = DATE_TIME_ROLE ( 'classification_date' ) ;
#48 = APPROVAL_STATUS ( 'not_yet_approved' ) ;
#49 = EDGE_LOOP ( 'NONE', ( #193 ) ) ;
#50 = AXIS2_PLACEMENT_3D ( 'NONE', #41, #37, #129 ) ;
#51 = EDGE_LOOP ( 'NONE', ( #124 ) ) ;
#52 = EDGE_CURVE ( 'NONE', #69, #69, #137, .T. ) ;
#53 = CLOSED_SHELL ( 'NONE', ( #39, #8, #89, #169 ) ) ;
#54 = DIRECTION ( 'NONE',  ( 4.373512576242074128E-31, 1.000000000000000000, 1.252623786811128485E-16 ) ) ;
#55 = APPROVAL ( #28, 'UNSPECIFIED' ) ;
#56 = CARTESIAN_POINT ( 'NONE',  ( 2.793185071074506684E-14, 2.353599526927575962E-32, 8.000000000000000000 ) ) ;
#57 = VERTEX_POINT ( 'NONE', #110 ) ;
#58 = DIRECTION ( 'NONE',  ( 3.491481338843133355E-15, -1.252623786811128485E-16, 1.000000000000000000 ) ) ;
#59 = SECURITY_CLASSIFICATION_LEVEL ( 'unclassified' ) ;
#60 = CC_DESIGN_APPROVAL ( #55, ( #13 ) ) ;
#61 = DIRECTION ( 'NONE',  ( -3.491481338843133355E-15, 1.252623786811128485E-16, -1.000000000000000000 ) ) ;
#62 = APPROVAL_PERSON_ORGANIZATION ( #172, #189, #170 ) ;
#63 = SHAPE_DEFINITION_REPRESENTATION ( #174, #19 ) ;
#64 = AXIS2_PLACEMENT_3D ( 'NONE', #147, #80, #85 ) ;
#65 = EDGE_LOOP ( 'NONE', ( #93 ) ) ;
#66 = MECHANICAL_CONTEXT ( 'NONE', #88, 'mechanical' ) ;
#67 = FACE_OUTER_BOUND ( 'NONE', #65, .T. ) ;
#68 = APPLICATION_CONTEXT ( 'configuration controlled 3d designs of mechanical parts and assemblies' ) ;
#69 = VERTEX_POINT ( 'NONE', #127 ) ;
#70 = CALENDAR_DATE ( 2021, 9, 12 ) ;
#71 = COORDINATED_UNIVERSAL_TIME_OFFSET ( 1, 0, .AHEAD. ) ;
#72 = CARTESIAN_POINT ( 'NONE',  ( 2.793185071074506684E-14, 2.999999999999999112, 8.000000000000000000 ) ) ;
#73 = PERSON_AND_ORGANIZATION ( #142, #4 ) ;
#74 = DATE_AND_TIME ( #203, #145 ) ;
#75 = CIRCLE ( 'NONE', #165, 2.400000000000000799 ) ;
#76 = EDGE_CURVE ( 'NONE', #25, #25, #126, .T. ) ;
#77 = AXIS2_PLACEMENT_3D ( 'NONE', #96, #81, #5 ) ;
#78 = LOCAL_TIME ( 10, 54, 0.0000000000000000000, #168 ) ;
#79 = EDGE_LOOP ( 'NONE', ( #20 ) ) ;
#80 = DIRECTION ( 'NONE',  ( -3.491481338843133355E-15, 1.252623786811128485E-16, -1.000000000000000000 ) ) ;
#81 = DIRECTION ( 'NONE',  ( -3.491481338843133355E-15, 1.252623786811128485E-16, -1.000000000000000000 ) ) ;
#82 = DIRECTION ( 'NONE',  ( 0.0000000000000000000, 1.000000000000000000, 0.0000000000000000000 ) ) ;
#83 = PERSON_AND_ORGANIZATION_ROLE ( 'creator' ) ;
#84 = PLANE ( 'NONE',  #161 ) ;
#85 = DIRECTION ( 'NONE',  ( 4.373512576242074128E-31, 1.000000000000000000, 1.252623786811128485E-16 ) ) ;
#86 = CC_DESIGN_APPROVAL ( #189, ( #36 ) ) ;
#87 = CC_DESIGN_PERSON_AND_ORGANIZATION_ASSIGNMENT ( #146, #83, ( #152 ) ) ;
#88 = APPLICATION_CONTEXT ( 'configuration controlled 3d designs of mechanical parts and assemblies' ) ;
#89 = ADVANCED_FACE ( 'NONE', ( #24, #159 ), #33, .T. ) ;
#90 = EDGE_LOOP ( 'NONE', ( #106 ) ) ;
#91 = AXIS2_PLACEMENT_3D ( 'NONE', #202, #61, #143 ) ;
#92 = ORIENTED_EDGE ( 'NONE', *, *, #171, .T. ) ;
#93 = ORIENTED_EDGE ( 'NONE', *, *, #144, .T. ) ;
#94 = AXIS2_PLACEMENT_3D ( 'NONE', #27, #7, #125 ) ;
#95 = CARTESIAN_POINT ( 'NONE',  ( 1.759706594776938959E-13, -6.313223885528086912E-15, 50.39999999999999147 ) ) ;
#96 = CARTESIAN_POINT ( 'NONE',  ( 0.0000000000000000000, 0.0000000000000000000, 0.0000000000000000000 ) ) ;
#97 = CARTESIAN_POINT ( 'NONE',  ( 1.780655482809997633E-13, 2.399999999999994138, 50.99999999999999289 ) ) ;
#98 = CIRCLE ( 'NONE', #153, 3.000000000000000000 ) ;
#99 = CALENDAR_DATE ( 2021, 9, 12 ) ;
#100 = FACE_OUTER_BOUND ( 'NONE', #157, .T. ) ;
#101 = DATE_AND_TIME ( #70, #21 ) ;
#102 = FACE_OUTER_BOUND ( 'NONE', #2, .T. ) ;
#103 = DESIGN_CONTEXT ( 'detailed design', #68, 'design' ) ;
#104 = CALENDAR_DATE ( 2021, 9, 12 ) ;
#105 = CC_DESIGN_APPROVAL ( #119, ( #152 ) ) ;
#106 = ORIENTED_EDGE ( 'NONE', *, *, #171, .F. ) ;
#107 = PLANE ( 'NONE',  #1 ) ;
#108 = CARTESIAN_POINT ( 'NONE',  ( -1.312053772872622326E-30, 4.707199053855154660E-32, -3.757871360433385701E-16 ) ) ;
#109 = PRODUCT_RELATED_PRODUCT_CATEGORY ( 'detail', '', ( #118 ) ) ;
#110 = CARTESIAN_POINT ( 'NONE',  ( 1.759706594776938959E-13, 2.999999999999993783, 50.39999999999999147 ) ) ;
#111 =( GEOMETRIC_REPRESENTATION_CONTEXT ( 3 ) GLOBAL_UNCERTAINTY_ASSIGNED_CONTEXT ( ( #113 ) ) GLOBAL_UNIT_ASSIGNED_CONTEXT ( ( #167, #42, #163 ) ) REPRESENTATION_CONTEXT ( 'NONE', 'WORKASPACE' ) );
#112 = DIRECTION ( 'NONE',  ( -3.491481338843133355E-15, 1.252623786811128485E-16, -1.000000000000000000 ) ) ;
#113 = UNCERTAINTY_MEASURE_WITH_UNIT (LENGTH_MEASURE( 1.000000000000000082E-05 ), #167, 'distance_accuracy_value', 'NONE');
#114 = PERSON_AND_ORGANIZATION ( #142, #4 ) ;
#115 = AXIS2_PLACEMENT_3D ( 'NONE', #117, #112, #194 ) ;
#116 = APPROVAL_DATE_TIME ( #131, #119 ) ;
#117 = CARTESIAN_POINT ( 'NONE',  ( 2.793185071074506684E-14, -1.002099029448902788E-15, 8.000000000000000000 ) ) ;
#118 = PRODUCT ( '378234', '378234', '', ( #66 ) ) ;
#119 = APPROVAL ( #43, 'UNSPECIFIED' ) ;
#120 = COORDINATED_UNIVERSAL_TIME_OFFSET ( 1, 0, .AHEAD. ) ;
#121 = LOCAL_TIME ( 10, 54, 0.0000000000000000000, #71 ) ;
#122 = ORIENTED_EDGE ( 'NONE', *, *, #52, .T. ) ;
#123 = EDGE_CURVE ( 'NONE', #57, #57, #177, .T. ) ;
#124 = ORIENTED_EDGE ( 'NONE', *, *, #76, .F. ) ;
#125 = DIRECTION ( 'NONE',  ( 4.373512576242074128E-31, 1.000000000000000000, 1.252623786811128485E-16 ) ) ;
#126 = CIRCLE ( 'NONE', #91, 3.000000000000000000 ) ;
#127 = CARTESIAN_POINT ( 'NONE',  ( 2.793185071074506684E-14, 2.999999999999999112, 8.000000000000000000 ) ) ;
#128 = DIRECTION ( 'NONE',  ( -3.491481338843133355E-15, 1.252623786811128485E-16, -1.000000000000000000 ) ) ;
#129 = DIRECTION ( 'NONE',  ( 4.373512576242074128E-31, 1.000000000000000000, 1.252623786811128485E-16 ) ) ;
#130 = APPROVAL_PERSON_ORGANIZATION ( #187, #55, #11 ) ;
#131 = DATE_AND_TIME ( #99, #78 ) ;
#132 = PLANE ( 'NONE',  #50 ) ;
#133 = PERSON_AND_ORGANIZATION_ROLE ( 'design_supplier' ) ;
#134 = MANIFOLD_SOLID_BREP ( 'Corps-Déplacer/Copier1[2]', #198 ) ;
#135 = MANIFOLD_SOLID_BREP ( 'Corps-Déplacer/Copier1[1]', #53 ) ;
#136 = EDGE_LOOP ( 'NONE', ( #92 ) ) ;
#137 = CIRCLE ( 'NONE', #115, 3.000000000000000000 ) ;
#138 = CC_DESIGN_PERSON_AND_ORGANIZATION_ASSIGNMENT ( #31, #14, ( #13 ) ) ;
#139 = DIRECTION ( 'NONE',  ( 1.000000000000000000, 0.0000000000000000000, 0.0000000000000000000 ) ) ;
#140 = FACE_OUTER_BOUND ( 'NONE', #79, .T. ) ;
#141 = DIRECTION ( 'NONE',  ( 0.0000000000000000000, 1.000000000000000000, 0.0000000000000000000 ) ) ;
#142 = PERSON ( 'UNSPECIFIED', 'UNSPECIFIED', 'UNSPECIFIED', ('UNSPECIFIED'), ('UNSPECIFIED'), ('UNSPECIFIED') ) ;
#143 = DIRECTION ( 'NONE',  ( 0.0000000000000000000, 1.000000000000000000, 0.0000000000000000000 ) ) ;
#144 = EDGE_CURVE ( 'NONE', #195, #195, #98, .T. ) ;
#145 = LOCAL_TIME ( 10, 54, 0.0000000000000000000, #120 ) ;
#146 = PERSON_AND_ORGANIZATION ( #142, #4 ) ;
#147 = CARTESIAN_POINT ( 'NONE',  ( 1.780655482809997633E-13, 1.474514954580285273E-13, 50.99999999999999289 ) ) ;
#148 = COORDINATED_UNIVERSAL_TIME_OFFSET ( 1, 0, .AHEAD. ) ;
#149 = FACE_OUTER_BOUND ( 'NONE', #49, .T. ) ;
#150 = LOCAL_TIME ( 10, 54, 0.0000000000000000000, #46 ) ;
#151 = APPROVAL_DATE_TIME ( #30, #55 ) ;
#152 = PRODUCT_DEFINITION ( 'UNKNOWN', '', #13, #103 ) ;
#153 = AXIS2_PLACEMENT_3D ( 'NONE', #108, #182, #54 ) ;
#154 = DIRECTION ( 'NONE',  ( 0.0000000000000000000, 0.0000000000000000000, 1.000000000000000000 ) ) ;
#155 = ORIENTED_EDGE ( 'NONE', *, *, #52, .F. ) ;
#156 = ADVANCED_FACE ( 'NONE', ( #102 ), #107, .T. ) ;
#157 = EDGE_LOOP ( 'NONE', ( #34 ) ) ;
#158 = CARTESIAN_POINT ( 'NONE',  ( 1.759706594776938959E-13, -6.313223885528086912E-15, 50.39999999999999147 ) ) ;
#159 = FACE_OUTER_BOUND ( 'NONE', #190, .T. ) ;
#160 = CYLINDRICAL_SURFACE ( 'NONE', #94, 3.000000000000000000 ) ;
#161 = AXIS2_PLACEMENT_3D ( 'NONE', #56, #58, #164 ) ;
#162 = DIRECTION ( 'NONE',  ( 3.491481338843133355E-15, -1.252623786811128485E-16, 1.000000000000000000 ) ) ;
#163 =( NAMED_UNIT ( * ) SI_UNIT ( $, .STERADIAN. ) SOLID_ANGLE_UNIT ( ) );
#164 = DIRECTION ( 'NONE',  ( -4.373512576242074128E-31, -1.000000000000000000, -1.252623786811128485E-16 ) ) ;
#165 = AXIS2_PLACEMENT_3D ( 'NONE', #196, #10, #141 ) ;
#166 = DATE_AND_TIME ( #104, #150 ) ;
#167 =( LENGTH_UNIT ( ) NAMED_UNIT ( * ) SI_UNIT ( .MILLI., .METRE. ) );
#168 = COORDINATED_UNIVERSAL_TIME_OFFSET ( 1, 0, .AHEAD. ) ;
#169 = ADVANCED_FACE ( 'NONE', ( #178 ), #12, .F. ) ;
#170 = APPROVAL_ROLE ( '' ) ;
#171 = EDGE_CURVE ( 'NONE', #179, #179, #75, .T. ) ;
#172 = PERSON_AND_ORGANIZATION ( #142, #4 ) ;
#173 = CC_DESIGN_SECURITY_CLASSIFICATION ( #36, ( #13 ) ) ;
#174 = PRODUCT_DEFINITION_SHAPE ( 'NONE', 'NONE',  #152 ) ;
#175 = APPLICATION_PROTOCOL_DEFINITION ( 'international standard', 'config_control_design', 1994, #88 ) ;
#176 = EDGE_LOOP ( 'NONE', ( #122 ) ) ;
#177 = CIRCLE ( 'NONE', #15, 3.000000000000000444 ) ;
#178 = FACE_OUTER_BOUND ( 'NONE', #90, .T. ) ;
#179 = VERTEX_POINT ( 'NONE', #97 ) ;
#180 = PERSON_AND_ORGANIZATION_ROLE ( 'design_owner' ) ;
#181 = CARTESIAN_POINT ( 'NONE',  ( -1.710569414459005214E-46, 3.000000000000000000, 0.0000000000000000000 ) ) ;
#182 = DIRECTION ( 'NONE',  ( -3.491481338843133355E-15, 1.252623786811128485E-16, -1.000000000000000000 ) ) ;
#183 = CC_DESIGN_DATE_AND_TIME_ASSIGNMENT ( #166, #47, ( #36 ) ) ;
#184 = CALENDAR_DATE ( 2021, 9, 12 ) ;
#185 = PERSON_AND_ORGANIZATION_ROLE ( 'classification_officer' ) ;
#186 = AXIS2_PLACEMENT_3D ( 'NONE', #192, #154, #139 ) ;
#187 = PERSON_AND_ORGANIZATION ( #142, #4 ) ;
#188 = APPROVAL_PERSON_ORGANIZATION ( #9, #119, #201 ) ;
#189 = APPROVAL ( #48, 'UNSPECIFIED' ) ;
#190 = EDGE_LOOP ( 'NONE', ( #35 ) ) ;
#191 = CC_DESIGN_PERSON_AND_ORGANIZATION_ASSIGNMENT ( #26, #180, ( #118 ) ) ;
#192 = CARTESIAN_POINT ( 'NONE',  ( 0.0000000000000000000, 0.0000000000000000000, 0.0000000000000000000 ) ) ;
#193 = ORIENTED_EDGE ( 'NONE', *, *, #144, .F. ) ;
#194 = DIRECTION ( 'NONE',  ( 0.0000000000000000000, 1.000000000000000000, 0.0000000000000000000 ) ) ;
#195 = VERTEX_POINT ( 'NONE', #181 ) ;
#196 = CARTESIAN_POINT ( 'NONE',  ( 1.780655482809997633E-13, -6.388381312736753768E-15, 50.99999999999999289 ) ) ;
#197 = FACE_OUTER_BOUND ( 'NONE', #51, .T. ) ;
#198 = CLOSED_SHELL ( 'NONE', ( #32, #200, #156 ) ) ;
#199 = APPLICATION_PROTOCOL_DEFINITION ( 'international standard', 'config_control_design', 1994, #68 ) ;
#200 = ADVANCED_FACE ( 'NONE', ( #3, #149 ), #38, .T. ) ;
#201 = APPROVAL_ROLE ( '' ) ;
#202 = CARTESIAN_POINT ( 'NONE',  ( 2.793185071074506684E-14, -1.002099029448902788E-15, 8.000000000000000000 ) ) ;
#203 = CALENDAR_DATE ( 2021, 9, 12 ) ;
ENDSEC;
END-ISO-10303-21;
