ISO-10303-21;
HEADER;
FILE_DESCRIPTION (( 'STEP AP203' ),
    '1' );
FILE_NAME ('378233.step',
    '2021-12-09T09:54:00',
    ( '' ),
    ( '' ),
    'SwSTEP 2.0',
    'SolidWorks 2019',
    '' );
FILE_SCHEMA (( 'CONFIG_CONTROL_DESIGN' ));
ENDSEC;

DATA;
#1 = AXIS2_PLACEMENT_3D ( 'NONE', #157, #65, #2 ) ;
#2 = DIRECTION ( 'NONE',  ( 0.0000000000000000000, 1.000000000000000000, 0.0000000000000000000 ) ) ;
#3 = PERSON_AND_ORGANIZATION ( #176, #230 ) ;
#4 = CONICAL_SURFACE ( 'NONE', #62, 3.000000000000000444, 0.7853981633974511656 ) ;
#5 = ADVANCED_BREP_SHAPE_REPRESENTATION ( '378233', ( #172, #169, #41 ), #25 ) ;
#6 = DATE_AND_TIME ( #196, #179 ) ;
#7 = AXIS2_PLACEMENT_3D ( 'NONE', #212, #40, #83 ) ;
#8 = EDGE_LOOP ( 'NONE', ( #147 ) ) ;
#9 = EDGE_LOOP ( 'NONE', ( #134 ) ) ;
#10 = ADVANCED_FACE ( 'NONE', ( #205, #94 ), #86, .F. ) ;
#11 = EDGE_LOOP ( 'NONE', ( #139 ) ) ;
#12 = FACE_OUTER_BOUND ( 'NONE', #11, .T. ) ;
#13 = CC_DESIGN_APPROVAL ( #17, ( #165 ) ) ;
#14 = FACE_OUTER_BOUND ( 'NONE', #219, .T. ) ;
#15 = ORIENTED_EDGE ( 'NONE', *, *, #181, .F. ) ;
#16 = DIRECTION ( 'NONE',  ( 4.292138011278226688E-31, 1.000000000000000000, 1.229317185094960748E-16 ) ) ;
#17 = APPROVAL ( #150, 'UNSPECIFIED' ) ;
#18 =( LENGTH_UNIT ( ) NAMED_UNIT ( * ) SI_UNIT ( .MILLI., .METRE. ) );
#19 = CONICAL_SURFACE ( 'NONE', #218, 4.999999999999996447, 0.1745329251994333364 ) ;
#20 = EDGE_LOOP ( 'NONE', ( #146 ) ) ;
#21 = DIRECTION ( 'NONE',  ( 0.0000000000000000000, 1.000000000000000000, 0.0000000000000000000 ) ) ;
#22 = CC_DESIGN_DATE_AND_TIME_ASSIGNMENT ( #178, #49, ( #165 ) ) ;
#23 = EDGE_LOOP ( 'NONE', ( #215 ) ) ;
#24 = DIRECTION ( 'NONE',  ( 3.491481338843133355E-15, -1.252623786811128485E-16, 1.000000000000000000 ) ) ;
#25 =( GEOMETRIC_REPRESENTATION_CONTEXT ( 3 ) GLOBAL_UNCERTAINTY_ASSIGNED_CONTEXT ( ( #52 ) ) GLOBAL_UNIT_ASSIGNED_CONTEXT ( ( #18, #42, #26 ) ) REPRESENTATION_CONTEXT ( 'NONE', 'WORKASPACE' ) );
#26 =( NAMED_UNIT ( * ) SI_UNIT ( $, .STERADIAN. ) SOLID_ANGLE_UNIT ( ) );
#27 = CALENDAR_DATE ( 2021, 9, 12 ) ;
#28 = ORIENTED_EDGE ( 'NONE', *, *, #60, .F. ) ;
#29 = AXIS2_PLACEMENT_3D ( 'NONE', #56, #204, #100 ) ;
#30 = CALENDAR_DATE ( 2021, 9, 12 ) ;
#31 = ADVANCED_FACE ( 'NONE', ( #236 ), #149, .F. ) ;
#32 = ADVANCED_FACE ( 'NONE', ( #93, #38 ), #182, .T. ) ;
#33 = FACE_OUTER_BOUND ( 'NONE', #8, .T. ) ;
#34 = EDGE_LOOP ( 'NONE', ( #73 ) ) ;
#35 = DIRECTION ( 'NONE',  ( -4.373512576242074128E-31, -1.000000000000000000, -1.252623786811128485E-16 ) ) ;
#36 = CARTESIAN_POINT ( 'NONE',  ( -3.697142048564801630E-30, 1.301728353943837648E-31, -1.058903568360417352E-15 ) ) ;
#37 = CC_DESIGN_PERSON_AND_ORGANIZATION_ASSIGNMENT ( #89, #71, ( #165 ) ) ;
#38 = FACE_OUTER_BOUND ( 'NONE', #39, .T. ) ;
#39 = EDGE_LOOP ( 'NONE', ( #208 ) ) ;
#40 = DIRECTION ( 'NONE',  ( -3.491481338843133355E-15, 1.229317185094960748E-16, -1.000000000000000000 ) ) ;
#41 = AXIS2_PLACEMENT_3D ( 'NONE', #43, #122, #211 ) ;
#42 =( NAMED_UNIT ( * ) PLANE_ANGLE_UNIT ( ) SI_UNIT ( $, .RADIAN. ) );
#43 = CARTESIAN_POINT ( 'NONE',  ( 0.0000000000000000000, 0.0000000000000000000, 0.0000000000000000000 ) ) ;
#44 = VERTEX_POINT ( 'NONE', #191 ) ;
#45 = CIRCLE ( 'NONE', #190, 2.400000000000000799 ) ;
#46 = SHAPE_DEFINITION_REPRESENTATION ( #48, #5 ) ;
#47 = AXIS2_PLACEMENT_3D ( 'NONE', #162, #167, #54 ) ;
#48 = PRODUCT_DEFINITION_SHAPE ( 'NONE', 'NONE',  #231 ) ;
#49 = DATE_TIME_ROLE ( 'classification_date' ) ;
#50 = EDGE_CURVE ( 'NONE', #232, #232, #95, .T. ) ;
#51 = DATE_TIME_ROLE ( 'creation_date' ) ;
#52 = UNCERTAINTY_MEASURE_WITH_UNIT (LENGTH_MEASURE( 1.000000000000000082E-05 ), #18, 'distance_accuracy_value', 'NONE');
#53 = ADVANCED_FACE ( 'NONE', ( #58, #33 ), #118, .T. ) ;
#54 = DIRECTION ( 'NONE',  ( 4.373512576242074128E-31, 1.000000000000000000, 1.252623786811128485E-16 ) ) ;
#55 = APPLICATION_CONTEXT ( 'configuration controlled 3d designs of mechanical parts and assemblies' ) ;
#56 = CARTESIAN_POINT ( 'NONE',  ( 3.813790306706389380E-14, -1.342799089951941621E-15, 10.92312957333476753 ) ) ;
#57 = LOCAL_TIME ( 10, 54, 0.0000000000000000000, #63 ) ;
#58 = FACE_OUTER_BOUND ( 'NONE', #102, .T. ) ;
#59 = PLANE ( 'NONE',  #242 ) ;
#60 = EDGE_CURVE ( 'NONE', #138, #138, #66, .T. ) ;
#61 = VERTEX_POINT ( 'NONE', #103 ) ;
#62 = AXIS2_PLACEMENT_3D ( 'NONE', #187, #99, #240 ) ;
#63 = COORDINATED_UNIVERSAL_TIME_OFFSET ( 1, 0, .AHEAD. ) ;
#64 = CARTESIAN_POINT ( 'NONE',  ( 2.793185071074506684E-14, 2.499999999999999556, 8.000000000000000000 ) ) ;
#65 = DIRECTION ( 'NONE',  ( -3.491481338843133355E-15, 1.229317185094960748E-16, -1.000000000000000000 ) ) ;
#66 = CIRCLE ( 'NONE', #235, 2.500000000000000444 ) ;
#67 = PERSON_AND_ORGANIZATION ( #176, #230 ) ;
#68 = CC_DESIGN_PERSON_AND_ORGANIZATION_ASSIGNMENT ( #3, #161, ( #153 ) ) ;
#69 = APPROVAL_STATUS ( 'not_yet_approved' ) ;
#70 = AXIS2_PLACEMENT_3D ( 'NONE', #136, #185, #163 ) ;
#71 = PERSON_AND_ORGANIZATION_ROLE ( 'classification_officer' ) ;
#72 = CARTESIAN_POINT ( 'NONE',  ( 1.780655482809997633E-13, 1.474514954580285273E-13, 50.99999999999999289 ) ) ;
#73 = ORIENTED_EDGE ( 'NONE', *, *, #206, .F. ) ;
#74 = CC_DESIGN_APPROVAL ( #106, ( #153 ) ) ;
#75 = EDGE_LOOP ( 'NONE', ( #123 ) ) ;
#76 = CALENDAR_DATE ( 2021, 9, 12 ) ;
#77 = DIRECTION ( 'NONE',  ( -3.491481338843133355E-15, 1.252623786811128485E-16, -1.000000000000000000 ) ) ;
#78 = EDGE_LOOP ( 'NONE', ( #112 ) ) ;
#79 = ADVANCED_FACE ( 'NONE', ( #12, #183 ), #19, .T. ) ;
#80 = DIRECTION ( 'NONE',  ( -3.491481338843133355E-15, 1.229317185094960748E-16, -1.000000000000000000 ) ) ;
#81 = DIRECTION ( 'NONE',  ( 0.0000000000000000000, -1.000000000000000000, 0.0000000000000000000 ) ) ;
#82 = LOCAL_TIME ( 10, 54, 0.0000000000000000000, #199 ) ;
#83 = DIRECTION ( 'NONE',  ( 0.0000000000000000000, 1.000000000000000000, 0.0000000000000000000 ) ) ;
#84 = PERSON_AND_ORGANIZATION ( #176, #230 ) ;
#85 = CARTESIAN_POINT ( 'NONE',  ( -6.560268864363111629E-31, 2.353599526927577330E-32, -1.878935680216692850E-16 ) ) ;
#86 = TOROIDAL_SURFACE ( 'NONE', #70, 3.500000000000000000, 0.9999999999999993339 ) ;
#87 = DIRECTION ( 'NONE',  ( -3.491481338843133355E-15, 1.252623786811128485E-16, -1.000000000000000000 ) ) ;
#88 = CC_DESIGN_PERSON_AND_ORGANIZATION_ASSIGNMENT ( #195, #133, ( #153 ) ) ;
#89 = PERSON_AND_ORGANIZATION ( #176, #230 ) ;
#90 = APPROVAL ( #155, 'UNSPECIFIED' ) ;
#91 = LOCAL_TIME ( 10, 54, 0.0000000000000000000, #144 ) ;
#92 = APPROVAL_DATE_TIME ( #6, #106 ) ;
#93 = FACE_OUTER_BOUND ( 'NONE', #20, .T. ) ;
#94 = FACE_OUTER_BOUND ( 'NONE', #23, .T. ) ;
#95 = CIRCLE ( 'NONE', #213, 3.000000000000000444 ) ;
#96 = PRODUCT ( '378233', '378233', '', ( #228 ) ) ;
#97 = FACE_OUTER_BOUND ( 'NONE', #9, .T. ) ;
#98 = ADVANCED_FACE ( 'NONE', ( #97 ), #151, .F. ) ;
#99 = DIRECTION ( 'NONE',  ( -3.491481338843133355E-15, 1.252623786811128485E-16, -1.000000000000000000 ) ) ;
#100 = DIRECTION ( 'NONE',  ( 0.0000000000000000000, -1.000000000000000000, 0.0000000000000000000 ) ) ;
#101 = VERTEX_POINT ( 'NONE', #142 ) ;
#102 = EDGE_LOOP ( 'NONE', ( #225 ) ) ;
#103 = CARTESIAN_POINT ( 'NONE',  ( 2.853814008259326140E-14, 2.515192246987791425, 8.173648177666928305 ) ) ;
#104 = DIRECTION ( 'NONE',  ( -3.491481338843133355E-15, 1.252623786811128485E-16, -1.000000000000000000 ) ) ;
#105 = AXIS2_PLACEMENT_3D ( 'NONE', #223, #222, #221 ) ;
#106 = APPROVAL ( #69, 'UNSPECIFIED' ) ;
#107 = APPROVAL_ROLE ( '' ) ;
#108 = APPROVAL_ROLE ( '' ) ;
#109 = ADVANCED_FACE ( 'NONE', ( #117, #14 ), #4, .T. ) ;
#110 = AXIS2_PLACEMENT_3D ( 'NONE', #36, #80, #16 ) ;
#111 = APPROVAL_DATE_TIME ( #128, #17 ) ;
#112 = ORIENTED_EDGE ( 'NONE', *, *, #168, .F. ) ;
#113 = DATE_AND_TIME ( #132, #57 ) ;
#114 = DIRECTION ( 'NONE',  ( 0.0000000000000000000, 1.000000000000000000, 0.0000000000000000000 ) ) ;
#115 = DIRECTION ( 'NONE',  ( 3.491481338843133355E-15, -1.229317185094960748E-16, 1.000000000000000000 ) ) ;
#116 = AXIS2_PLACEMENT_3D ( 'NONE', #192, #24, #154 ) ;
#117 = FACE_BOUND ( 'NONE', #184, .T. ) ;
#118 = CYLINDRICAL_SURFACE ( 'NONE', #47, 3.000000000000000000 ) ;
#119 = EDGE_CURVE ( 'NONE', #101, #101, #121, .T. ) ;
#120 = CARTESIAN_POINT ( 'NONE',  ( 1.780655482809997633E-13, 2.399999999999994138, 50.99999999999999289 ) ) ;
#121 = CIRCLE ( 'NONE', #110, 2.499999999999999556 ) ;
#122 = DIRECTION ( 'NONE',  ( 0.0000000000000000000, 0.0000000000000000000, 1.000000000000000000 ) ) ;
#123 = ORIENTED_EDGE ( 'NONE', *, *, #119, .T. ) ;
#124 = APPLICATION_CONTEXT ( 'configuration controlled 3d designs of mechanical parts and assemblies' ) ;
#125 = PERSON_AND_ORGANIZATION_ROLE ( 'design_owner' ) ;
#126 = EDGE_CURVE ( 'NONE', #44, #44, #174, .T. ) ;
#127 = DIRECTION ( 'NONE',  ( 4.373512576242074128E-31, 1.000000000000000000, 1.252623786811128485E-16 ) ) ;
#128 = DATE_AND_TIME ( #76, #82 ) ;
#129 = ADVANCED_FACE ( 'NONE', ( #170 ), #143, .T. ) ;
#130 = COORDINATED_UNIVERSAL_TIME_OFFSET ( 1, 0, .AHEAD. ) ;
#131 = APPROVAL_PERSON_ORGANIZATION ( #67, #17, #108 ) ;
#132 = CALENDAR_DATE ( 2021, 9, 12 ) ;
#133 = PERSON_AND_ORGANIZATION_ROLE ( 'creator' ) ;
#134 = ORIENTED_EDGE ( 'NONE', *, *, #206, .T. ) ;
#135 = DIRECTION ( 'NONE',  ( 4.373512576242074128E-31, 1.000000000000000000, 1.252623786811128485E-16 ) ) ;
#136 = CARTESIAN_POINT ( 'NONE',  ( 2.793185071074506684E-14, -8.673617379884035472E-16, 8.000000000000000000 ) ) ;
#137 = EDGE_LOOP ( 'NONE', ( #15 ) ) ;
#138 = VERTEX_POINT ( 'NONE', #141 ) ;
#139 = ORIENTED_EDGE ( 'NONE', *, *, #126, .T. ) ;
#140 = CLOSED_SHELL ( 'NONE', ( #129, #32, #177 ) ) ;
#141 = CARTESIAN_POINT ( 'NONE',  ( 2.793185071074506684E-14, 2.499999999999999556, 8.000000000000000000 ) ) ;
#142 = CARTESIAN_POINT ( 'NONE',  ( -2.624107545745245002E-30, 2.499999999999999556, -7.515742720866772387E-16 ) ) ;
#143 = PLANE ( 'NONE',  #116 ) ;
#144 = COORDINATED_UNIVERSAL_TIME_OFFSET ( 1, 0, .AHEAD. ) ;
#145 = CC_DESIGN_PERSON_AND_ORGANIZATION_ASSIGNMENT ( #194, #234, ( #231 ) ) ;
#146 = ORIENTED_EDGE ( 'NONE', *, *, #119, .F. ) ;
#147 = ORIENTED_EDGE ( 'NONE', *, *, #50, .T. ) ;
#148 = CIRCLE ( 'NONE', #7, 2.515192246987792313 ) ;
#149 = PLANE ( 'NONE',  #203 ) ;
#150 = APPROVAL_STATUS ( 'not_yet_approved' ) ;
#151 = PLANE ( 'NONE',  #193 ) ;
#152 = CARTESIAN_POINT ( 'NONE',  ( 2.793185071074506684E-14, 2.353599526927575962E-32, 8.000000000000000000 ) ) ;
#153 = PRODUCT_DEFINITION_FORMATION_WITH_SPECIFIED_SOURCE ( 'ANY', '', #96, .NOT_KNOWN. ) ;
#154 = DIRECTION ( 'NONE',  ( -4.373512576242074128E-31, -1.000000000000000000, -1.252623786811128485E-16 ) ) ;
#155 = APPROVAL_STATUS ( 'not_yet_approved' ) ;
#156 = CC_DESIGN_SECURITY_CLASSIFICATION ( #165, ( #153 ) ) ;
#157 = CARTESIAN_POINT ( 'NONE',  ( 2.793185071074506684E-14, -9.834537480759685987E-16, 8.000000000000000000 ) ) ;
#158 = APPROVAL_PERSON_ORGANIZATION ( #84, #90, #229 ) ;
#159 = DESIGN_CONTEXT ( 'detailed design', #124, 'design' ) ;
#160 = PRODUCT_RELATED_PRODUCT_CATEGORY ( 'detail', '', ( #96 ) ) ;
#161 = PERSON_AND_ORGANIZATION_ROLE ( 'design_supplier' ) ;
#162 = CARTESIAN_POINT ( 'NONE',  ( 0.0000000000000000000, 0.0000000000000000000, 0.0000000000000000000 ) ) ;
#163 = DIRECTION ( 'NONE',  ( 4.292138011278224936E-31, 1.000000000000000000, 1.229317185094960748E-16 ) ) ;
#164 = ORIENTED_EDGE ( 'NONE', *, *, #50, .F. ) ;
#165 = SECURITY_CLASSIFICATION ( '', '', #217 ) ;
#166 = DIRECTION ( 'NONE',  ( 3.491481338843133355E-15, -1.252623786811128485E-16, 1.000000000000000000 ) ) ;
#167 = DIRECTION ( 'NONE',  ( -3.491481338843133355E-15, 1.252623786811128485E-16, -1.000000000000000000 ) ) ;
#168 = EDGE_CURVE ( 'NONE', #61, #61, #148, .T. ) ;
#169 = MANIFOLD_SOLID_BREP ( 'Corps-Déplacer/Copier1[2]', #140 ) ;
#170 = FACE_OUTER_BOUND ( 'NONE', #227, .T. ) ;
#171 = VERTEX_POINT ( 'NONE', #120 ) ;
#172 = MANIFOLD_SOLID_BREP ( 'Corps-Déplacer/Copier1[1]', #186 ) ;
#173 = CARTESIAN_POINT ( 'NONE',  ( 1.759706594776938959E-13, 2.999999999999993783, 50.39999999999999147 ) ) ;
#174 = CIRCLE ( 'NONE', #29, 3.000000000000000000 ) ;
#175 = CARTESIAN_POINT ( 'NONE',  ( 1.780655482809997633E-13, -6.388381312736753768E-15, 50.99999999999999289 ) ) ;
#176 = PERSON ( 'UNSPECIFIED', 'UNSPECIFIED', 'UNSPECIFIED', ('UNSPECIFIED'), ('UNSPECIFIED'), ('UNSPECIFIED') ) ;
#177 = ADVANCED_FACE ( 'NONE', ( #214 ), #59, .T. ) ;
#178 = DATE_AND_TIME ( #30, #237 ) ;
#179 = LOCAL_TIME ( 10, 54, 0.0000000000000000000, #130 ) ;
#180 = APPROVAL_PERSON_ORGANIZATION ( #233, #106, #107 ) ;
#181 = EDGE_CURVE ( 'NONE', #171, #171, #45, .T. ) ;
#182 = CYLINDRICAL_SURFACE ( 'NONE', #105, 2.500000000000000000 ) ;
#183 = FACE_BOUND ( 'NONE', #78, .T. ) ;
#184 = EDGE_LOOP ( 'NONE', ( #241 ) ) ;
#185 = DIRECTION ( 'NONE',  ( -3.491481338843133355E-15, 1.229317185094960748E-16, -1.000000000000000000 ) ) ;
#186 = CLOSED_SHELL ( 'NONE', ( #53, #109, #31, #10, #79, #98 ) ) ;
#187 = CARTESIAN_POINT ( 'NONE',  ( 1.759706594776938959E-13, -6.313223885528086912E-15, 50.39999999999999147 ) ) ;
#188 = CARTESIAN_POINT ( 'NONE',  ( 7.774025234809485574E-14, -2.737159930426470139E-15, 22.26569321257014167 ) ) ;
#189 = APPLICATION_PROTOCOL_DEFINITION ( 'international standard', 'config_control_design', 1994, #55 ) ;
#190 = AXIS2_PLACEMENT_3D ( 'NONE', #175, #87, #21 ) ;
#191 = CARTESIAN_POINT ( 'NONE',  ( 3.813790306706389380E-14, -3.000000000000001332, 10.92312957333476753 ) ) ;
#192 = CARTESIAN_POINT ( 'NONE',  ( 2.793185071074506684E-14, 2.353599526927575962E-32, 8.000000000000000000 ) ) ;
#193 = AXIS2_PLACEMENT_3D ( 'NONE', #152, #166, #35 ) ;
#194 = PERSON_AND_ORGANIZATION ( #176, #230 ) ;
#195 = PERSON_AND_ORGANIZATION ( #176, #230 ) ;
#196 = CALENDAR_DATE ( 2021, 9, 12 ) ;
#197 = CIRCLE ( 'NONE', #1, 2.500000000000000444 ) ;
#198 = APPROVAL_DATE_TIME ( #113, #90 ) ;
#199 = COORDINATED_UNIVERSAL_TIME_OFFSET ( 1, 0, .AHEAD. ) ;
#200 = DIRECTION ( 'NONE',  ( -3.491481338843133355E-15, 1.252623786811128485E-16, -1.000000000000000000 ) ) ;
#201 = DIRECTION ( 'NONE',  ( -3.491481338843133355E-15, 1.229317185094960748E-16, -1.000000000000000000 ) ) ;
#202 = CARTESIAN_POINT ( 'NONE',  ( 2.793185071074506684E-14, -9.834537480759685987E-16, 8.000000000000000000 ) ) ;
#203 = AXIS2_PLACEMENT_3D ( 'NONE', #72, #77, #135 ) ;
#204 = DIRECTION ( 'NONE',  ( -3.491481338843133355E-15, 1.229317185094960748E-16, -1.000000000000000000 ) ) ;
#205 = FACE_OUTER_BOUND ( 'NONE', #34, .T. ) ;
#206 = EDGE_CURVE ( 'NONE', #207, #207, #197, .T. ) ;
#207 = VERTEX_POINT ( 'NONE', #64 ) ;
#208 = ORIENTED_EDGE ( 'NONE', *, *, #60, .T. ) ;
#209 = CC_DESIGN_APPROVAL ( #90, ( #231 ) ) ;
#210 = PERSON_AND_ORGANIZATION ( #176, #230 ) ;
#211 = DIRECTION ( 'NONE',  ( 1.000000000000000000, 0.0000000000000000000, 0.0000000000000000000 ) ) ;
#212 = CARTESIAN_POINT ( 'NONE',  ( 2.853814008259326140E-14, -1.004800616972606416E-15, 8.173648177666928305 ) ) ;
#213 = AXIS2_PLACEMENT_3D ( 'NONE', #226, #200, #224 ) ;
#214 = FACE_OUTER_BOUND ( 'NONE', #75, .T. ) ;
#215 = ORIENTED_EDGE ( 'NONE', *, *, #168, .T. ) ;
#216 = CC_DESIGN_PERSON_AND_ORGANIZATION_ASSIGNMENT ( #210, #125, ( #96 ) ) ;
#217 = SECURITY_CLASSIFICATION_LEVEL ( 'unclassified' ) ;
#218 = AXIS2_PLACEMENT_3D ( 'NONE', #188, #115, #81 ) ;
#219 = EDGE_LOOP ( 'NONE', ( #164 ) ) ;
#220 = DATE_AND_TIME ( #27, #91 ) ;
#221 = DIRECTION ( 'NONE',  ( 4.292138011278226688E-31, 1.000000000000000000, 1.229317185094960748E-16 ) ) ;
#222 = DIRECTION ( 'NONE',  ( -3.491481338843133355E-15, 1.229317185094960748E-16, -1.000000000000000000 ) ) ;
#223 = CARTESIAN_POINT ( 'NONE',  ( 0.0000000000000000000, 0.0000000000000000000, 0.0000000000000000000 ) ) ;
#224 = DIRECTION ( 'NONE',  ( 0.0000000000000000000, 1.000000000000000000, 0.0000000000000000000 ) ) ;
#225 = ORIENTED_EDGE ( 'NONE', *, *, #126, .F. ) ;
#226 = CARTESIAN_POINT ( 'NONE',  ( 1.759706594776938959E-13, -6.313223885528086912E-15, 50.39999999999999147 ) ) ;
#227 = EDGE_LOOP ( 'NONE', ( #28 ) ) ;
#228 = MECHANICAL_CONTEXT ( 'NONE', #55, 'mechanical' ) ;
#229 = APPROVAL_ROLE ( '' ) ;
#230 = ORGANIZATION ( 'UNSPECIFIED', 'UNSPECIFIED', '' ) ;
#231 = PRODUCT_DEFINITION ( 'UNKNOWN', '', #153, #159 ) ;
#232 = VERTEX_POINT ( 'NONE', #173 ) ;
#233 = PERSON_AND_ORGANIZATION ( #176, #230 ) ;
#234 = PERSON_AND_ORGANIZATION_ROLE ( 'creator' ) ;
#235 = AXIS2_PLACEMENT_3D ( 'NONE', #202, #201, #114 ) ;
#236 = FACE_OUTER_BOUND ( 'NONE', #137, .T. ) ;
#237 = LOCAL_TIME ( 10, 54, 0.0000000000000000000, #239 ) ;
#238 = CC_DESIGN_DATE_AND_TIME_ASSIGNMENT ( #220, #51, ( #231 ) ) ;
#239 = COORDINATED_UNIVERSAL_TIME_OFFSET ( 1, 0, .AHEAD. ) ;
#240 = DIRECTION ( 'NONE',  ( 0.0000000000000000000, 1.000000000000000000, 0.0000000000000000000 ) ) ;
#241 = ORIENTED_EDGE ( 'NONE', *, *, #181, .T. ) ;
#242 = AXIS2_PLACEMENT_3D ( 'NONE', #85, #104, #127 ) ;
#243 = APPLICATION_PROTOCOL_DEFINITION ( 'international standard', 'config_control_design', 1994, #124 ) ;
ENDSEC;
END-ISO-10303-21;
