ISO-10303-21;
HEADER;
FILE_DESCRIPTION (( 'STEP AP203' ),
    '1' );
FILE_NAME ('378231.step',
    '2021-12-09T09:53:59',
    ( '' ),
    ( '' ),
    'SwSTEP 2.0',
    'SolidWorks 2019',
    '' );
FILE_SCHEMA (( 'CONFIG_CONTROL_DESIGN' ));
ENDSEC;

DATA;
#1 = CARTESIAN_POINT ( 'NONE',  ( 2.094888803305880013E-14, 1.499759782661860071E-32, 6.000000000000000000 ) ) ;
#2 = CONICAL_SURFACE ( 'NONE', #120, 2.000000000000000000, 0.7853981633974602694 ) ;
#3 = MANIFOLD_SOLID_BREP ( 'Corps-Déplacer/Copier1[2]', #41 ) ;
#4 = EDGE_LOOP ( 'NONE', ( #238 ) ) ;
#5 = PERSON_AND_ORGANIZATION ( #29, #143 ) ;
#6 = DATE_AND_TIME ( #131, #220 ) ;
#7 = SECURITY_CLASSIFICATION ( '', '', #75 ) ;
#8 = APPROVAL_ROLE ( '' ) ;
#9 = FACE_OUTER_BOUND ( 'NONE', #4, .T. ) ;
#10 = DIRECTION ( 'NONE',  ( 0.0000000000000000000, 1.000000000000000000, 0.0000000000000000000 ) ) ;
#11 = DIRECTION ( 'NONE',  ( -3.491481338843133355E-15, 1.224646799147354686E-16, -1.000000000000000000 ) ) ;
#12 = AXIS2_PLACEMENT_3D ( 'NONE', #221, #218, #45 ) ;
#13 = APPLICATION_CONTEXT ( 'configuration controlled 3d designs of mechanical parts and assemblies' ) ;
#14 = FACE_OUTER_BOUND ( 'NONE', #136, .T. ) ;
#15 = CARTESIAN_POINT ( 'NONE',  ( 3.115494038937765233E-14, -1.096935652932950359E-15, 8.923129573334774634 ) ) ;
#16 = EDGE_LOOP ( 'NONE', ( #98 ) ) ;
#17 = CARTESIAN_POINT ( 'NONE',  ( 9.055846431092416782E-14, -3.188476913644745502E-15, 25.93697503218785272 ) ) ;
#18 = ORIENTED_EDGE ( 'NONE', *, *, #118, .T. ) ;
#19 = CARTESIAN_POINT ( 'NONE',  ( 2.094888803305880013E-14, 1.499999999999999112, 6.000000000000000000 ) ) ;
#20 = EDGE_LOOP ( 'NONE', ( #88 ) ) ;
#21 = AXIS2_PLACEMENT_3D ( 'NONE', #1, #208, #191 ) ;
#22 = CALENDAR_DATE ( 2021, 9, 12 ) ;
#23 = COORDINATED_UNIVERSAL_TIME_OFFSET ( 1, 0, .AHEAD. ) ;
#24 = EDGE_LOOP ( 'NONE', ( #158 ) ) ;
#25 = AXIS2_PLACEMENT_3D ( 'NONE', #219, #30, #10 ) ;
#26 = EDGE_CURVE ( 'NONE', #51, #51, #61, .T. ) ;
#27 = COORDINATED_UNIVERSAL_TIME_OFFSET ( 1, 0, .AHEAD. ) ;
#28 = LOCAL_TIME ( 10, 53, 59.00000000000000000, #27 ) ;
#29 = PERSON ( 'UNSPECIFIED', 'UNSPECIFIED', 'UNSPECIFIED', ('UNSPECIFIED'), ('UNSPECIFIED'), ('UNSPECIFIED') ) ;
#30 = DIRECTION ( 'NONE',  ( -3.491481338843133355E-15, 1.229317185094960748E-16, -1.000000000000000000 ) ) ;
#31 = PLANE ( 'NONE',  #226 ) ;
#32 = CARTESIAN_POINT ( 'NONE',  ( 2.094888803305880013E-14, -7.375903110569764490E-16, 6.000000000000000000 ) ) ;
#33 = ADVANCED_FACE ( 'NONE', ( #117 ), #217, .T. ) ;
#34 = CARTESIAN_POINT ( 'NONE',  ( 0.0000000000000000000, 0.0000000000000000000, 0.0000000000000000000 ) ) ;
#35 = DIRECTION ( 'NONE',  ( 4.275831445896963861E-31, 1.000000000000000000, 1.224646799147354686E-16 ) ) ;
#36 = ORIENTED_EDGE ( 'NONE', *, *, #70, .F. ) ;
#37 = CARTESIAN_POINT ( 'NONE',  ( 0.0000000000000000000, 0.0000000000000000000, 0.0000000000000000000 ) ) ;
#38 = DIRECTION ( 'NONE',  ( 0.0000000000000000000, -1.000000000000000000, 0.0000000000000000000 ) ) ;
#39 = CIRCLE ( 'NONE', #237, 1.499999999999999778 ) ;
#40 = PERSON_AND_ORGANIZATION_ROLE ( 'design_supplier' ) ;
#41 = CLOSED_SHELL ( 'NONE', ( #241, #205, #33 ) ) ;
#42 = CC_DESIGN_SECURITY_CLASSIFICATION ( #7, ( #183 ) ) ;
#43 = DATE_TIME_ROLE ( 'creation_date' ) ;
#44 = EDGE_CURVE ( 'NONE', #49, #49, #39, .T. ) ;
#45 = DIRECTION ( 'NONE',  ( 4.275831445896963861E-31, 1.000000000000000000, 1.224646799147354933E-16 ) ) ;
#46 =( GEOMETRIC_REPRESENTATION_CONTEXT ( 3 ) GLOBAL_UNCERTAINTY_ASSIGNED_CONTEXT ( ( #166 ) ) GLOBAL_UNIT_ASSIGNED_CONTEXT ( ( #239, #145, #90 ) ) REPRESENTATION_CONTEXT ( 'NONE', 'WORKASPACE' ) );
#47 = FACE_OUTER_BOUND ( 'NONE', #146, .T. ) ;
#48 = CARTESIAN_POINT ( 'NONE',  ( 1.326762908760390170E-13, 1.647987302177966992E-13, 37.99999999999999289 ) ) ;
#49 = VERTEX_POINT ( 'NONE', #73 ) ;
#50 = AXIS2_PLACEMENT_3D ( 'NONE', #34, #83, #157 ) ;
#51 = VERTEX_POINT ( 'NONE', #87 ) ;
#52 = APPROVAL_DATE_TIME ( #188, #78 ) ;
#53 = AXIS2_PLACEMENT_3D ( 'NONE', #186, #155, #200 ) ;
#54 = CARTESIAN_POINT ( 'NONE',  ( -1.710332578358785194E-30, 1.500000000000000000, -4.898587196589419731E-16 ) ) ;
#55 = PERSON_AND_ORGANIZATION_ROLE ( 'classification_officer' ) ;
#56 = CC_DESIGN_PERSON_AND_ORGANIZATION_ASSIGNMENT ( #214, #55, ( #7 ) ) ;
#57 = CLOSED_SHELL ( 'NONE', ( #168, #228, #114, #164, #216, #64 ) ) ;
#58 = EDGE_CURVE ( 'NONE', #165, #165, #231, .T. ) ;
#59 = LOCAL_TIME ( 10, 53, 59.00000000000000000, #116 ) ;
#60 = DIRECTION ( 'NONE',  ( 0.0000000000000000000, 1.000000000000000000, 0.0000000000000000000 ) ) ;
#61 = CIRCLE ( 'NONE', #72, 1.599999999999999867 ) ;
#62 = EDGE_LOOP ( 'NONE', ( #195 ) ) ;
#63 = ORIENTED_EDGE ( 'NONE', *, *, #26, .T. ) ;
#64 = ADVANCED_FACE ( 'NONE', ( #47 ), #138, .F. ) ;
#65 = DIRECTION ( 'NONE',  ( 4.292138011278226688E-31, 1.000000000000000000, 1.229317185094960502E-16 ) ) ;
#66 = EDGE_LOOP ( 'NONE', ( #135 ) ) ;
#67 = CARTESIAN_POINT ( 'NONE',  ( 1.312796983405018142E-13, -4.604671964794053246E-15, 37.60000000000000142 ) ) ;
#68 = APPROVAL_PERSON_ORGANIZATION ( #225, #78, #210 ) ;
#69 = DIRECTION ( 'NONE',  ( 3.491481338843133355E-15, -1.224646799147354686E-16, 1.000000000000000000 ) ) ;
#70 = EDGE_CURVE ( 'NONE', #147, #147, #132, .T. ) ;
#71 = PERSON_AND_ORGANIZATION_ROLE ( 'design_owner' ) ;
#72 = AXIS2_PLACEMENT_3D ( 'NONE', #108, #11, #60 ) ;
#73 = CARTESIAN_POINT ( 'NONE',  ( 2.094888803305880013E-14, 1.499999999999999112, 6.000000000000000000 ) ) ;
#74 = TOROIDAL_SURFACE ( 'NONE', #150, 2.500000000000000444, 1.000000000000000444 ) ;
#75 = SECURITY_CLASSIFICATION_LEVEL ( 'unclassified' ) ;
#76 = SHAPE_DEFINITION_REPRESENTATION ( #82, #125 ) ;
#77 = LOCAL_TIME ( 10, 53, 59.00000000000000000, #192 ) ;
#78 = APPROVAL ( #229, 'UNSPECIFIED' ) ;
#79 = CALENDAR_DATE ( 2021, 9, 12 ) ;
#80 = DIRECTION ( 'NONE',  ( -3.491481338843133355E-15, 1.229317185094960748E-16, -1.000000000000000000 ) ) ;
#81 = DIRECTION ( 'NONE',  ( -3.491481338843133355E-15, 1.224646799147354686E-16, -1.000000000000000000 ) ) ;
#82 = PRODUCT_DEFINITION_SHAPE ( 'NONE', 'NONE',  #179 ) ;
#83 = DIRECTION ( 'NONE',  ( -3.491481338843133355E-15, 1.229317185094960748E-16, -1.000000000000000000 ) ) ;
#84 = DIRECTION ( 'NONE',  ( -3.491481338843133355E-15, 1.224646799147354686E-16, -1.000000000000000000 ) ) ;
#85 = DIRECTION ( 'NONE',  ( 3.491481338843133355E-15, -1.229317185094960748E-16, 1.000000000000000000 ) ) ;
#86 = LOCAL_TIME ( 10, 53, 59.00000000000000000, #23 ) ;
#87 = CARTESIAN_POINT ( 'NONE',  ( 1.326762908760390170E-13, 1.599999999999995204, 37.99999999999999289 ) ) ;
#88 = ORIENTED_EDGE ( 'NONE', *, *, #118, .F. ) ;
#89 = DIRECTION ( 'NONE',  ( 0.0000000000000000000, 0.0000000000000000000, 1.000000000000000000 ) ) ;
#90 =( NAMED_UNIT ( * ) SI_UNIT ( $, .STERADIAN. ) SOLID_ANGLE_UNIT ( ) );
#91 = AXIS2_PLACEMENT_3D ( 'NONE', #181, #84, #159 ) ;
#92 = CARTESIAN_POINT ( 'NONE',  ( 2.155517740490700731E-14, 1.515192246987791203, 6.173648177666930970 ) ) ;
#93 = PRODUCT_RELATED_PRODUCT_CATEGORY ( 'detail', '', ( #133 ) ) ;
#94 = VERTEX_POINT ( 'NONE', #190 ) ;
#95 = APPROVAL_STATUS ( 'not_yet_approved' ) ;
#96 = CC_DESIGN_PERSON_AND_ORGANIZATION_ASSIGNMENT ( #196, #40, ( #183 ) ) ;
#97 = EDGE_LOOP ( 'NONE', ( #235 ) ) ;
#98 = ORIENTED_EDGE ( 'NONE', *, *, #144, .F. ) ;
#99 = DIRECTION ( 'NONE',  ( -3.491481338843133355E-15, 1.229317185094960748E-16, -1.000000000000000000 ) ) ;
#100 = APPROVAL_PERSON_ORGANIZATION ( #5, #189, #8 ) ;
#101 = FACE_OUTER_BOUND ( 'NONE', #224, .T. ) ;
#102 = CC_DESIGN_PERSON_AND_ORGANIZATION_ASSIGNMENT ( #129, #141, ( #179 ) ) ;
#103 = DIRECTION ( 'NONE',  ( -4.275831445896963861E-31, -1.000000000000000000, -1.224646799147354686E-16 ) ) ;
#104 = FACE_OUTER_BOUND ( 'NONE', #97, .T. ) ;
#105 = FACE_OUTER_BOUND ( 'NONE', #182, .T. ) ;
#106 = AXIS2_PLACEMENT_3D ( 'NONE', #137, #161, #65 ) ;
#107 = DIRECTION ( 'NONE',  ( -3.491481338843133355E-15, 1.224646799147354686E-16, -1.000000000000000000 ) ) ;
#108 = CARTESIAN_POINT ( 'NONE',  ( 1.326762908760390170E-13, -4.653657836759946674E-15, 37.99999999999999289 ) ) ;
#109 = CARTESIAN_POINT ( 'NONE',  ( 1.312796983405018142E-13, -4.604671964794053246E-15, 37.60000000000000142 ) ) ;
#110 = EDGE_CURVE ( 'NONE', #240, #240, #209, .T. ) ;
#111 = APPLICATION_PROTOCOL_DEFINITION ( 'international standard', 'config_control_design', 1994, #13 ) ;
#112 = CC_DESIGN_APPROVAL ( #189, ( #183 ) ) ;
#113 = DIRECTION ( 'NONE',  ( 0.0000000000000000000, 1.000000000000000000, 0.0000000000000000000 ) ) ;
#114 = ADVANCED_FACE ( 'NONE', ( #223 ), #31, .F. ) ;
#115 = PERSON_AND_ORGANIZATION ( #29, #143 ) ;
#116 = COORDINATED_UNIVERSAL_TIME_OFFSET ( 1, 0, .AHEAD. ) ;
#117 = FACE_OUTER_BOUND ( 'NONE', #170, .T. ) ;
#118 = EDGE_CURVE ( 'NONE', #94, #94, #213, .T. ) ;
#119 = CYLINDRICAL_SURFACE ( 'NONE', #12, 2.000000000000000000 ) ;
#120 = AXIS2_PLACEMENT_3D ( 'NONE', #109, #107, #113 ) ;
#121 = DIRECTION ( 'NONE',  ( 4.292138011278225812E-31, 1.000000000000000000, 1.229317185094960748E-16 ) ) ;
#122 = DIRECTION ( 'NONE',  ( 0.0000000000000000000, -1.000000000000000000, 0.0000000000000000000 ) ) ;
#123 = CC_DESIGN_PERSON_AND_ORGANIZATION_ASSIGNMENT ( #140, #71, ( #133 ) ) ;
#124 = ORIENTED_EDGE ( 'NONE', *, *, #58, .F. ) ;
#125 = ADVANCED_BREP_SHAPE_REPRESENTATION ( '378231', ( #162, #3, #174 ), #46 ) ;
#126 = ORIENTED_EDGE ( 'NONE', *, *, #44, .T. ) ;
#127 = CARTESIAN_POINT ( 'NONE',  ( 3.115494038937765233E-14, -2.000000000000001332, 8.923129573334774634 ) ) ;
#128 = DESIGN_CONTEXT ( 'detailed design', #13, 'design' ) ;
#129 = PERSON_AND_ORGANIZATION ( #29, #143 ) ;
#130 = APPROVAL_DATE_TIME ( #197, #160 ) ;
#131 = CALENDAR_DATE ( 2021, 9, 12 ) ;
#132 = CIRCLE ( 'NONE', #25, 1.499999999999999778 ) ;
#133 = PRODUCT ( '378231', '378231', '', ( #163 ) ) ;
#134 = DATE_AND_TIME ( #169, #86 ) ;
#135 = ORIENTED_EDGE ( 'NONE', *, *, #58, .T. ) ;
#136 = EDGE_LOOP ( 'NONE', ( #215 ) ) ;
#137 = CARTESIAN_POINT ( 'NONE',  ( -2.354153280050519241E-30, 8.288748535808217176E-32, -6.742562974231859621E-16 ) ) ;
#138 = PLANE ( 'NONE',  #242 ) ;
#139 = CARTESIAN_POINT ( 'NONE',  ( 2.094888803305880013E-14, -8.673617379884035472E-16, 6.000000000000000000 ) ) ;
#140 = PERSON_AND_ORGANIZATION ( #29, #143 ) ;
#141 = PERSON_AND_ORGANIZATION_ROLE ( 'creator' ) ;
#142 = CC_DESIGN_APPROVAL ( #78, ( #179 ) ) ;
#143 = ORGANIZATION ( 'UNSPECIFIED', 'UNSPECIFIED', '' ) ;
#144 = EDGE_CURVE ( 'NONE', #206, #206, #148, .T. ) ;
#145 =( NAMED_UNIT ( * ) PLANE_ANGLE_UNIT ( ) SI_UNIT ( $, .RADIAN. ) );
#146 = EDGE_LOOP ( 'NONE', ( #126 ) ) ;
#147 = VERTEX_POINT ( 'NONE', #19 ) ;
#148 = CIRCLE ( 'NONE', #187, 2.000000000000000000 ) ;
#149 = PERSON_AND_ORGANIZATION ( #29, #143 ) ;
#150 = AXIS2_PLACEMENT_3D ( 'NONE', #139, #80, #121 ) ;
#151 = COORDINATED_UNIVERSAL_TIME_OFFSET ( 1, 0, .AHEAD. ) ;
#152 = APPROVAL_ROLE ( '' ) ;
#153 = FACE_BOUND ( 'NONE', #222, .T. ) ;
#154 = AXIS2_PLACEMENT_3D ( 'NONE', #17, #85, #38 ) ;
#155 = DIRECTION ( 'NONE',  ( -3.491481338843133355E-15, 1.229317185094960748E-16, -1.000000000000000000 ) ) ;
#156 = ORIENTED_EDGE ( 'NONE', *, *, #110, .T. ) ;
#157 = DIRECTION ( 'NONE',  ( 4.292138011278225812E-31, 1.000000000000000000, 1.229317185094960748E-16 ) ) ;
#158 = ORIENTED_EDGE ( 'NONE', *, *, #110, .F. ) ;
#159 = DIRECTION ( 'NONE',  ( 4.275831445896963861E-31, 1.000000000000000000, 1.224646799147354686E-16 ) ) ;
#160 = APPROVAL ( #178, 'UNSPECIFIED' ) ;
#161 = DIRECTION ( 'NONE',  ( -3.491481338843133355E-15, 1.229317185094960748E-16, -1.000000000000000000 ) ) ;
#162 = MANIFOLD_SOLID_BREP ( 'Corps-Déplacer/Copier1[1]', #57 ) ;
#163 = MECHANICAL_CONTEXT ( 'NONE', #173, 'mechanical' ) ;
#164 = ADVANCED_FACE ( 'NONE', ( #9, #203 ), #74, .F. ) ;
#165 = VERTEX_POINT ( 'NONE', #92 ) ;
#166 = UNCERTAINTY_MEASURE_WITH_UNIT (LENGTH_MEASURE( 1.000000000000000082E-05 ), #239, 'distance_accuracy_value', 'NONE');
#167 = PLANE ( 'NONE',  #21 ) ;
#168 = ADVANCED_FACE ( 'NONE', ( #202, #101 ), #119, .T. ) ;
#169 = CALENDAR_DATE ( 2021, 9, 12 ) ;
#170 = EDGE_LOOP ( 'NONE', ( #156 ) ) ;
#171 = CC_DESIGN_APPROVAL ( #160, ( #7 ) ) ;
#172 = CC_DESIGN_DATE_AND_TIME_ASSIGNMENT ( #212, #232, ( #7 ) ) ;
#173 = APPLICATION_CONTEXT ( 'configuration controlled 3d designs of mechanical parts and assemblies' ) ;
#174 = AXIS2_PLACEMENT_3D ( 'NONE', #37, #89, #243 ) ;
#175 = PERSON_AND_ORGANIZATION_ROLE ( 'creator' ) ;
#176 = CC_DESIGN_PERSON_AND_ORGANIZATION_ASSIGNMENT ( #149, #175, ( #183 ) ) ;
#177 = CALENDAR_DATE ( 2021, 9, 12 ) ;
#178 = APPROVAL_STATUS ( 'not_yet_approved' ) ;
#179 = PRODUCT_DEFINITION ( 'UNKNOWN', '', #183, #128 ) ;
#180 = DIRECTION ( 'NONE',  ( 0.0000000000000000000, 1.000000000000000000, 0.0000000000000000000 ) ) ;
#181 = CARTESIAN_POINT ( 'NONE',  ( -4.275831445896963861E-31, 1.499759782661861440E-32, -1.224646799147354933E-16 ) ) ;
#182 = EDGE_LOOP ( 'NONE', ( #36 ) ) ;
#183 = PRODUCT_DEFINITION_FORMATION_WITH_SPECIFIED_SOURCE ( 'ANY', '', #133, .NOT_KNOWN. ) ;
#184 = FACE_OUTER_BOUND ( 'NONE', #24, .T. ) ;
#185 = DIRECTION ( 'NONE',  ( -3.491481338843133355E-15, 1.229317185094960748E-16, -1.000000000000000000 ) ) ;
#186 = CARTESIAN_POINT ( 'NONE',  ( 2.155517740490700731E-14, -7.589371799536145620E-16, 6.173648177666930970 ) ) ;
#187 = AXIS2_PLACEMENT_3D ( 'NONE', #15, #185, #122 ) ;
#188 = DATE_AND_TIME ( #22, #77 ) ;
#189 = APPROVAL ( #95, 'UNSPECIFIED' ) ;
#190 = CARTESIAN_POINT ( 'NONE',  ( 1.312796983405018142E-13, 1.999999999999995337, 37.60000000000000142 ) ) ;
#191 = DIRECTION ( 'NONE',  ( -4.275831445896963861E-31, -1.000000000000000000, -1.224646799147354686E-16 ) ) ;
#192 = COORDINATED_UNIVERSAL_TIME_OFFSET ( 1, 0, .AHEAD. ) ;
#193 = CONICAL_SURFACE ( 'NONE', #154, 4.999999999999999112, 0.1745329251994333919 ) ;
#194 = APPLICATION_PROTOCOL_DEFINITION ( 'international standard', 'config_control_design', 1994, #173 ) ;
#195 = ORIENTED_EDGE ( 'NONE', *, *, #26, .F. ) ;
#196 = PERSON_AND_ORGANIZATION ( #29, #143 ) ;
#197 = DATE_AND_TIME ( #79, #59 ) ;
#198 = APPROVAL_DATE_TIME ( #6, #189 ) ;
#199 = AXIS2_PLACEMENT_3D ( 'NONE', #67, #81, #180 ) ;
#200 = DIRECTION ( 'NONE',  ( 0.0000000000000000000, 1.000000000000000000, 0.0000000000000000000 ) ) ;
#201 = CYLINDRICAL_SURFACE ( 'NONE', #50, 1.500000000000000000 ) ;
#202 = FACE_OUTER_BOUND ( 'NONE', #16, .T. ) ;
#203 = FACE_OUTER_BOUND ( 'NONE', #66, .T. ) ;
#204 = DIRECTION ( 'NONE',  ( -3.491481338843133355E-15, 1.224646799147354686E-16, -1.000000000000000000 ) ) ;
#205 = ADVANCED_FACE ( 'NONE', ( #184, #14 ), #201, .T. ) ;
#206 = VERTEX_POINT ( 'NONE', #127 ) ;
#207 = FACE_OUTER_BOUND ( 'NONE', #20, .T. ) ;
#208 = DIRECTION ( 'NONE',  ( 3.491481338843133355E-15, -1.224646799147354686E-16, 1.000000000000000000 ) ) ;
#209 = CIRCLE ( 'NONE', #106, 1.500000000000000000 ) ;
#210 = APPROVAL_ROLE ( '' ) ;
#211 = EDGE_LOOP ( 'NONE', ( #63 ) ) ;
#212 = DATE_AND_TIME ( #177, #28 ) ;
#213 = CIRCLE ( 'NONE', #199, 2.000000000000000000 ) ;
#214 = PERSON_AND_ORGANIZATION ( #29, #143 ) ;
#215 = ORIENTED_EDGE ( 'NONE', *, *, #70, .T. ) ;
#216 = ADVANCED_FACE ( 'NONE', ( #104, #153 ), #193, .T. ) ;
#217 = PLANE ( 'NONE',  #91 ) ;
#218 = DIRECTION ( 'NONE',  ( -3.491481338843133355E-15, 1.224646799147354686E-16, -1.000000000000000000 ) ) ;
#219 = CARTESIAN_POINT ( 'NONE',  ( 2.094888803305880013E-14, -7.375903110569764490E-16, 6.000000000000000000 ) ) ;
#220 = LOCAL_TIME ( 10, 53, 59.00000000000000000, #151 ) ;
#221 = CARTESIAN_POINT ( 'NONE',  ( 0.0000000000000000000, 0.0000000000000000000, 0.0000000000000000000 ) ) ;
#222 = EDGE_LOOP ( 'NONE', ( #124 ) ) ;
#223 = FACE_OUTER_BOUND ( 'NONE', #62, .T. ) ;
#224 = EDGE_LOOP ( 'NONE', ( #18 ) ) ;
#225 = PERSON_AND_ORGANIZATION ( #29, #143 ) ;
#226 = AXIS2_PLACEMENT_3D ( 'NONE', #48, #204, #35 ) ;
#227 = FACE_BOUND ( 'NONE', #211, .T. ) ;
#228 = ADVANCED_FACE ( 'NONE', ( #227, #207 ), #2, .T. ) ;
#229 = APPROVAL_STATUS ( 'not_yet_approved' ) ;
#230 = CC_DESIGN_DATE_AND_TIME_ASSIGNMENT ( #134, #43, ( #179 ) ) ;
#231 = CIRCLE ( 'NONE', #53, 1.515192246987791869 ) ;
#232 = DATE_TIME_ROLE ( 'classification_date' ) ;
#233 = APPROVAL_PERSON_ORGANIZATION ( #115, #160, #152 ) ;
#234 = DIRECTION ( 'NONE',  ( 0.0000000000000000000, 1.000000000000000000, 0.0000000000000000000 ) ) ;
#235 = ORIENTED_EDGE ( 'NONE', *, *, #144, .T. ) ;
#236 = CARTESIAN_POINT ( 'NONE',  ( 2.094888803305880013E-14, 1.499759782661860071E-32, 6.000000000000000000 ) ) ;
#237 = AXIS2_PLACEMENT_3D ( 'NONE', #32, #99, #234 ) ;
#238 = ORIENTED_EDGE ( 'NONE', *, *, #44, .F. ) ;
#239 =( LENGTH_UNIT ( ) NAMED_UNIT ( * ) SI_UNIT ( .MILLI., .METRE. ) );
#240 = VERTEX_POINT ( 'NONE', #54 ) ;
#241 = ADVANCED_FACE ( 'NONE', ( #105 ), #167, .T. ) ;
#242 = AXIS2_PLACEMENT_3D ( 'NONE', #236, #69, #103 ) ;
#243 = DIRECTION ( 'NONE',  ( 1.000000000000000000, 0.0000000000000000000, 0.0000000000000000000 ) ) ;
ENDSEC;
END-ISO-10303-21;
