ISO-10303-21;
HEADER;
FILE_DESCRIPTION (( 'STEP AP203' ),
    '1' );
FILE_NAME ('378229.step',
    '2021-12-09T09:53:57',
    ( '' ),
    ( '' ),
    'SwSTEP 2.0',
    'SolidWorks 2019',
    '' );
FILE_SCHEMA (( 'CONFIG_CONTROL_DESIGN' ));
ENDSEC;

DATA;
#1 = AXIS2_PLACEMENT_3D ( 'NONE', #219, #56, #204 ) ;
#2 = APPROVAL_ROLE ( '' ) ;
#3 = PRODUCT_DEFINITION_FORMATION_WITH_SPECIFIED_SOURCE ( 'ANY', '', #9, .NOT_KNOWN. ) ;
#4 = EDGE_CURVE ( 'NONE', #42, #42, #229, .T. ) ;
#5 = CC_DESIGN_PERSON_AND_ORGANIZATION_ASSIGNMENT ( #65, #201, ( #3 ) ) ;
#6 = FACE_OUTER_BOUND ( 'NONE', #53, .T. ) ;
#7 = LOCAL_TIME ( 10, 53, 57.00000000000000000, #60 ) ;
#8 = DATE_AND_TIME ( #16, #7 ) ;
#9 = PRODUCT ( '378229', '378229', '', ( #196 ) ) ;
#10 = FACE_OUTER_BOUND ( 'NONE', #149, .T. ) ;
#11 = ADVANCED_BREP_SHAPE_REPRESENTATION ( '378229', ( #237, #159, #197 ), #12 ) ;
#12 =( GEOMETRIC_REPRESENTATION_CONTEXT ( 3 ) GLOBAL_UNCERTAINTY_ASSIGNED_CONTEXT ( ( #87 ) ) GLOBAL_UNIT_ASSIGNED_CONTEXT ( ( #45, #214, #124 ) ) REPRESENTATION_CONTEXT ( 'NONE', 'WORKASPACE' ) );
#13 = DIRECTION ( 'NONE',  ( 3.491481338843133355E-15, -1.229317185094960748E-16, 1.000000000000000000 ) ) ;
#14 = ORIENTED_EDGE ( 'NONE', *, *, #71, .F. ) ;
#15 = ORIENTED_EDGE ( 'NONE', *, *, #89, .T. ) ;
#16 = CALENDAR_DATE ( 2021, 9, 12 ) ;
#17 = CIRCLE ( 'NONE', #1, 0.9651922469877920463 ) ;
#18 = CARTESIAN_POINT ( 'NONE',  ( 1.396592535537253342E-14, -4.917268740379842993E-16, 4.000000000000000000 ) ) ;
#19 = FACE_OUTER_BOUND ( 'NONE', #91, .T. ) ;
#20 = DIRECTION ( 'NONE',  ( -3.491481338843133355E-15, 1.229317185094960748E-16, -1.000000000000000000 ) ) ;
#21 = PERSON_AND_ORGANIZATION ( #203, #132 ) ;
#22 = DIRECTION ( 'NONE',  ( -4.275831445896963861E-31, -1.000000000000000000, -1.224646799147354686E-16 ) ) ;
#23 = PERSON_AND_ORGANIZATION_ROLE ( 'design_owner' ) ;
#24 = CARTESIAN_POINT ( 'NONE',  ( 1.396592535537253342E-14, 0.9499999999999996225, 4.000000000000000000 ) ) ;
#25 = APPROVAL_PERSON_ORGANIZATION ( #52, #103, #117 ) ;
#26 = CARTESIAN_POINT ( 'NONE',  ( 0.0000000000000000000, 0.0000000000000000000, 0.0000000000000000000 ) ) ;
#27 = CARTESIAN_POINT ( 'NONE',  ( 1.396592535537253342E-14, 0.9499999999999996225, 4.000000000000000000 ) ) ;
#28 = EDGE_CURVE ( 'NONE', #80, #80, #227, .T. ) ;
#29 = CC_DESIGN_APPROVAL ( #103, ( #3 ) ) ;
#30 = AXIS2_PLACEMENT_3D ( 'NONE', #18, #95, #41 ) ;
#31 = DIRECTION ( 'NONE',  ( -3.491481338843133355E-15, 1.229317185094960748E-16, -1.000000000000000000 ) ) ;
#32 = CARTESIAN_POINT ( 'NONE',  ( 1.326762908760390170E-13, 2.197316402903955485E-13, 37.99999999999999289 ) ) ;
#33 = ORIENTED_EDGE ( 'NONE', *, *, #135, .T. ) ;
#34 = AXIS2_PLACEMENT_3D ( 'NONE', #66, #116, #83 ) ;
#35 = ADVANCED_FACE ( 'NONE', ( #6, #181 ), #215, .T. ) ;
#36 = DATE_AND_TIME ( #168, #54 ) ;
#37 = LOCAL_TIME ( 10, 53, 57.00000000000000000, #173 ) ;
#38 = CARTESIAN_POINT ( 'NONE',  ( 1.396592535537253342E-14, -4.917268740379842993E-16, 4.000000000000000000 ) ) ;
#39 = ADVANCED_FACE ( 'NONE', ( #51 ), #72, .F. ) ;
#40 = CLOSED_SHELL ( 'NONE', ( #55, #142, #39, #217, #35, #182 ) ) ;
#41 = DIRECTION ( 'NONE',  ( 0.0000000000000000000, 1.000000000000000000, 0.0000000000000000000 ) ) ;
#42 = VERTEX_POINT ( 'NONE', #241 ) ;
#43 = SECURITY_CLASSIFICATION ( '', '', #178 ) ;
#44 = CARTESIAN_POINT ( 'NONE',  ( 1.326762908760390170E-13, -4.653657836759946674E-15, 37.99999999999999289 ) ) ;
#45 =( LENGTH_UNIT ( ) NAMED_UNIT ( * ) SI_UNIT ( .MILLI., .METRE. ) );
#46 = CALENDAR_DATE ( 2021, 9, 12 ) ;
#47 = VERTEX_POINT ( 'NONE', #174 ) ;
#48 = DIRECTION ( 'NONE',  ( 0.0000000000000000000, 0.0000000000000000000, 1.000000000000000000 ) ) ;
#49 = APPROVAL ( #104, 'UNSPECIFIED' ) ;
#50 = CONICAL_SURFACE ( 'NONE', #34, 1.500000000000000000, 0.7853981633974569387 ) ;
#51 = FACE_OUTER_BOUND ( 'NONE', #59, .T. ) ;
#52 = PERSON_AND_ORGANIZATION ( #203, #132 ) ;
#53 = EDGE_LOOP ( 'NONE', ( #143 ) ) ;
#54 = LOCAL_TIME ( 10, 53, 57.00000000000000000, #207 ) ;
#55 = ADVANCED_FACE ( 'NONE', ( #10, #90 ), #220, .T. ) ;
#56 = DIRECTION ( 'NONE',  ( -3.491481338843133355E-15, 1.229317185094960748E-16, -1.000000000000000000 ) ) ;
#57 = AXIS2_PLACEMENT_3D ( 'NONE', #38, #224, #150 ) ;
#58 = ORIENTED_EDGE ( 'NONE', *, *, #135, .F. ) ;
#59 = EDGE_LOOP ( 'NONE', ( #163 ) ) ;
#60 = COORDINATED_UNIVERSAL_TIME_OFFSET ( 1, 0, .AHEAD. ) ;
#61 = APPROVAL_PERSON_ORGANIZATION ( #140, #49, #2 ) ;
#62 = DIRECTION ( 'NONE',  ( 4.292138011278225812E-31, 1.000000000000000000, 1.229317185094960502E-16 ) ) ;
#63 = DATE_AND_TIME ( #81, #145 ) ;
#64 = FACE_BOUND ( 'NONE', #92, .T. ) ;
#65 = PERSON_AND_ORGANIZATION ( #203, #132 ) ;
#66 = CARTESIAN_POINT ( 'NONE',  ( 1.316288464743861212E-13, -4.616918432785527392E-15, 37.69999999999999574 ) ) ;
#67 = APPROVAL_PERSON_ORGANIZATION ( #222, #127, #239 ) ;
#68 = APPROVAL_DATE_TIME ( #101, #49 ) ;
#69 = TOROIDAL_SURFACE ( 'NONE', #141, 1.949999999999999956, 1.000000000000000000 ) ;
#70 = PERSON_AND_ORGANIZATION ( #203, #132 ) ;
#71 = EDGE_CURVE ( 'NONE', #225, #225, #17, .T. ) ;
#72 = PLANE ( 'NONE',  #139 ) ;
#73 = CARTESIAN_POINT ( 'NONE',  ( 9.446614768552145808E-14, -3.326062707756249789E-15, 27.05618003297759344 ) ) ;
#74 = DIRECTION ( 'NONE',  ( -3.491481338843133355E-15, 1.224646799147354686E-16, -1.000000000000000000 ) ) ;
#75 = DIRECTION ( 'NONE',  ( 4.292138011278226688E-31, 1.000000000000000000, 1.229317185094960995E-16 ) ) ;
#76 = EDGE_LOOP ( 'NONE', ( #205 ) ) ;
#77 = FACE_OUTER_BOUND ( 'NONE', #221, .T. ) ;
#78 = FACE_OUTER_BOUND ( 'NONE', #218, .T. ) ;
#79 = AXIS2_PLACEMENT_3D ( 'NONE', #112, #31, #108 ) ;
#80 = VERTEX_POINT ( 'NONE', #153 ) ;
#81 = CALENDAR_DATE ( 2021, 9, 12 ) ;
#82 = ADVANCED_FACE ( 'NONE', ( #137, #206 ), #165, .T. ) ;
#83 = DIRECTION ( 'NONE',  ( 0.0000000000000000000, 1.000000000000000000, 0.0000000000000000000 ) ) ;
#84 = PERSON_AND_ORGANIZATION ( #203, #132 ) ;
#85 = CC_DESIGN_SECURITY_CLASSIFICATION ( #43, ( #3 ) ) ;
#86 = AXIS2_PLACEMENT_3D ( 'NONE', #73, #13, #230 ) ;
#87 = UNCERTAINTY_MEASURE_WITH_UNIT (LENGTH_MEASURE( 1.000000000000000082E-05 ), #45, 'distance_accuracy_value', 'NONE');
#88 = ORIENTED_EDGE ( 'NONE', *, *, #28, .T. ) ;
#89 = EDGE_CURVE ( 'NONE', #102, #102, #113, .T. ) ;
#90 = FACE_OUTER_BOUND ( 'NONE', #114, .T. ) ;
#91 = EDGE_LOOP ( 'NONE', ( #88 ) ) ;
#92 = EDGE_LOOP ( 'NONE', ( #235 ) ) ;
#93 = COORDINATED_UNIVERSAL_TIME_OFFSET ( 1, 0, .AHEAD. ) ;
#94 = CLOSED_SHELL ( 'NONE', ( #151, #82, #175 ) ) ;
#95 = DIRECTION ( 'NONE',  ( -3.491481338843133355E-15, 1.229317185094960748E-16, -1.000000000000000000 ) ) ;
#96 = DIRECTION ( 'NONE',  ( -3.491481338843133355E-15, 1.224646799147354686E-16, -1.000000000000000000 ) ) ;
#97 = APPROVAL_DATE_TIME ( #63, #103 ) ;
#98 = CARTESIAN_POINT ( 'NONE',  ( 1.396592535537253342E-14, 1.124819836996395395E-32, 4.000000000000000000 ) ) ;
#99 = APPLICATION_CONTEXT ( 'configuration controlled 3d designs of mechanical parts and assemblies' ) ;
#100 = CARTESIAN_POINT ( 'NONE',  ( -3.206873584422722458E-31, 1.124819836996396080E-32, -9.184850993605159531E-17 ) ) ;
#101 = DATE_AND_TIME ( #228, #184 ) ;
#102 = VERTEX_POINT ( 'NONE', #24 ) ;
#103 = APPROVAL ( #128, 'UNSPECIFIED' ) ;
#104 = APPROVAL_STATUS ( 'not_yet_approved' ) ;
#105 = VERTEX_POINT ( 'NONE', #194 ) ;
#106 = CC_DESIGN_PERSON_AND_ORGANIZATION_ASSIGNMENT ( #21, #189, ( #43 ) ) ;
#107 = AXIS2_PLACEMENT_3D ( 'NONE', #187, #131, #208 ) ;
#108 = DIRECTION ( 'NONE',  ( 0.0000000000000000000, -1.000000000000000000, 0.0000000000000000000 ) ) ;
#109 = CC_DESIGN_PERSON_AND_ORGANIZATION_ASSIGNMENT ( #70, #23, ( #9 ) ) ;
#110 = DIRECTION ( 'NONE',  ( 4.275831445896963861E-31, 1.000000000000000000, 1.224646799147354686E-16 ) ) ;
#111 = PRODUCT_DEFINITION_SHAPE ( 'NONE', 'NONE',  #191 ) ;
#112 = CARTESIAN_POINT ( 'NONE',  ( 2.516203644371715951E-14, -8.859312369258213336E-16, 7.206693664315658054 ) ) ;
#113 = CIRCLE ( 'NONE', #57, 0.9500000000000001776 ) ;
#114 = EDGE_LOOP ( 'NONE', ( #33 ) ) ;
#115 = DIRECTION ( 'NONE',  ( 0.0000000000000000000, 1.000000000000000000, 0.0000000000000000000 ) ) ;
#116 = DIRECTION ( 'NONE',  ( -3.491481338843133355E-15, 1.224646799147354686E-16, -1.000000000000000000 ) ) ;
#117 = APPROVAL_ROLE ( '' ) ;
#118 = CARTESIAN_POINT ( 'NONE',  ( 1.396592535537253342E-14, -4.336808689942017736E-16, 4.000000000000000000 ) ) ;
#119 = PERSON_AND_ORGANIZATION ( #203, #132 ) ;
#120 = DIRECTION ( 'NONE',  ( 0.0000000000000000000, 1.000000000000000000, 0.0000000000000000000 ) ) ;
#121 = APPLICATION_PROTOCOL_DEFINITION ( 'international standard', 'config_control_design', 1994, #198 ) ;
#122 = AXIS2_PLACEMENT_3D ( 'NONE', #98, #223, #22 ) ;
#123 = DATE_AND_TIME ( #46, #37 ) ;
#124 =( NAMED_UNIT ( * ) SI_UNIT ( $, .STERADIAN. ) SOLID_ANGLE_UNIT ( ) );
#125 = DESIGN_CONTEXT ( 'detailed design', #198, 'design' ) ;
#126 = AXIS2_PLACEMENT_3D ( 'NONE', #161, #74, #146 ) ;
#127 = APPROVAL ( #134, 'UNSPECIFIED' ) ;
#128 = APPROVAL_STATUS ( 'not_yet_approved' ) ;
#129 = CC_DESIGN_APPROVAL ( #49, ( #191 ) ) ;
#130 = EDGE_LOOP ( 'NONE', ( #183 ) ) ;
#131 = DIRECTION ( 'NONE',  ( 3.491481338843133355E-15, -1.224646799147354686E-16, 1.000000000000000000 ) ) ;
#132 = ORGANIZATION ( 'UNSPECIFIED', 'UNSPECIFIED', '' ) ;
#133 = DIRECTION ( 'NONE',  ( -3.491481338843133355E-15, 1.224646799147354686E-16, -1.000000000000000000 ) ) ;
#134 = APPROVAL_STATUS ( 'not_yet_approved' ) ;
#135 = EDGE_CURVE ( 'NONE', #47, #47, #192, .T. ) ;
#136 = PLANE ( 'NONE',  #107 ) ;
#137 = FACE_OUTER_BOUND ( 'NONE', #130, .T. ) ;
#138 = PERSON_AND_ORGANIZATION_ROLE ( 'creator' ) ;
#139 = AXIS2_PLACEMENT_3D ( 'NONE', #32, #144, #110 ) ;
#140 = PERSON_AND_ORGANIZATION ( #203, #132 ) ;
#141 = AXIS2_PLACEMENT_3D ( 'NONE', #118, #188, #169 ) ;
#142 = ADVANCED_FACE ( 'NONE', ( #64, #77 ), #50, .T. ) ;
#143 = ORIENTED_EDGE ( 'NONE', *, *, #4, .T. ) ;
#144 = DIRECTION ( 'NONE',  ( -3.491481338843133355E-15, 1.224646799147354686E-16, -1.000000000000000000 ) ) ;
#145 = LOCAL_TIME ( 10, 53, 57.00000000000000000, #93 ) ;
#146 = DIRECTION ( 'NONE',  ( 4.275831445896963861E-31, 1.000000000000000000, 1.224646799147354686E-16 ) ) ;
#147 = EDGE_CURVE ( 'NONE', #105, #105, #171, .T. ) ;
#148 = EDGE_LOOP ( 'NONE', ( #14 ) ) ;
#149 = EDGE_LOOP ( 'NONE', ( #200 ) ) ;
#150 = DIRECTION ( 'NONE',  ( 0.0000000000000000000, 1.000000000000000000, 0.0000000000000000000 ) ) ;
#151 = ADVANCED_FACE ( 'NONE', ( #190 ), #236, .T. ) ;
#152 = DIRECTION ( 'NONE',  ( 4.275831445896963861E-31, 1.000000000000000000, 1.224646799147354686E-16 ) ) ;
#153 = CARTESIAN_POINT ( 'NONE',  ( -1.282749433769089158E-30, 0.9499999999999998446, -3.673940397442063812E-16 ) ) ;
#154 = DATE_TIME_ROLE ( 'classification_date' ) ;
#155 = COORDINATED_UNIVERSAL_TIME_OFFSET ( 1, 0, .AHEAD. ) ;
#156 = CC_DESIGN_APPROVAL ( #127, ( #43 ) ) ;
#157 = APPLICATION_PROTOCOL_DEFINITION ( 'international standard', 'config_control_design', 1994, #99 ) ;
#158 = AXIS2_PLACEMENT_3D ( 'NONE', #177, #233, #75 ) ;
#159 = MANIFOLD_SOLID_BREP ( 'Corps-Déplacer/Copier1[2]', #94 ) ;
#160 = EDGE_LOOP ( 'NONE', ( #232 ) ) ;
#161 = CARTESIAN_POINT ( 'NONE',  ( 0.0000000000000000000, 0.0000000000000000000, 0.0000000000000000000 ) ) ;
#162 = EDGE_LOOP ( 'NONE', ( #179 ) ) ;
#163 = ORIENTED_EDGE ( 'NONE', *, *, #147, .F. ) ;
#164 = PERSON_AND_ORGANIZATION_ROLE ( 'design_supplier' ) ;
#165 = CYLINDRICAL_SURFACE ( 'NONE', #180, 0.9500000000000000666 ) ;
#166 = CC_DESIGN_PERSON_AND_ORGANIZATION_ASSIGNMENT ( #119, #164, ( #3 ) ) ;
#167 = DIRECTION ( 'NONE',  ( -3.491481338843133355E-15, 1.224646799147354686E-16, -1.000000000000000000 ) ) ;
#168 = CALENDAR_DATE ( 2021, 9, 12 ) ;
#169 = DIRECTION ( 'NONE',  ( 4.292138011278224936E-31, 1.000000000000000000, 1.229317185094960748E-16 ) ) ;
#170 = SHAPE_DEFINITION_REPRESENTATION ( #111, #11 ) ;
#171 = CIRCLE ( 'NONE', #186, 1.200000000000000178 ) ;
#172 = PLANE ( 'NONE',  #211 ) ;
#173 = COORDINATED_UNIVERSAL_TIME_OFFSET ( 1, 0, .AHEAD. ) ;
#174 = CARTESIAN_POINT ( 'NONE',  ( 1.316288464743861212E-13, 1.499999999999995559, 37.69999999999999574 ) ) ;
#175 = ADVANCED_FACE ( 'NONE', ( #19 ), #172, .T. ) ;
#176 = CARTESIAN_POINT ( 'NONE',  ( 1.457221472722074060E-14, 0.9651922469877914912, 4.173648177666930970 ) ) ;
#177 = CARTESIAN_POINT ( 'NONE',  ( -1.690502544840520593E-30, 5.952097772081447130E-32, -4.841791723282276696E-16 ) ) ;
#178 = SECURITY_CLASSIFICATION_LEVEL ( 'unclassified' ) ;
#179 = ORIENTED_EDGE ( 'NONE', *, *, #195, .T. ) ;
#180 = AXIS2_PLACEMENT_3D ( 'NONE', #209, #20, #62 ) ;
#181 = FACE_BOUND ( 'NONE', #148, .T. ) ;
#182 = ADVANCED_FACE ( 'NONE', ( #185 ), #136, .F. ) ;
#183 = ORIENTED_EDGE ( 'NONE', *, *, #28, .F. ) ;
#184 = LOCAL_TIME ( 10, 53, 57.00000000000000000, #155 ) ;
#185 = FACE_OUTER_BOUND ( 'NONE', #199, .T. ) ;
#186 = AXIS2_PLACEMENT_3D ( 'NONE', #44, #96, #120 ) ;
#187 = CARTESIAN_POINT ( 'NONE',  ( 1.396592535537253342E-14, 1.124819836996395395E-32, 4.000000000000000000 ) ) ;
#188 = DIRECTION ( 'NONE',  ( -3.491481338843133355E-15, 1.229317185094960748E-16, -1.000000000000000000 ) ) ;
#189 = PERSON_AND_ORGANIZATION_ROLE ( 'classification_officer' ) ;
#190 = FACE_OUTER_BOUND ( 'NONE', #76, .T. ) ;
#191 = PRODUCT_DEFINITION ( 'UNKNOWN', '', #3, #125 ) ;
#192 = CIRCLE ( 'NONE', #242, 1.500000000000000000 ) ;
#193 = DATE_TIME_ROLE ( 'creation_date' ) ;
#194 = CARTESIAN_POINT ( 'NONE',  ( 1.326762908760390170E-13, 1.199999999999995515, 37.99999999999999289 ) ) ;
#195 = EDGE_CURVE ( 'NONE', #210, #210, #234, .T. ) ;
#196 = MECHANICAL_CONTEXT ( 'NONE', #99, 'mechanical' ) ;
#197 = AXIS2_PLACEMENT_3D ( 'NONE', #26, #48, #212 ) ;
#198 = APPLICATION_CONTEXT ( 'configuration controlled 3d designs of mechanical parts and assemblies' ) ;
#199 = EDGE_LOOP ( 'NONE', ( #15 ) ) ;
#200 = ORIENTED_EDGE ( 'NONE', *, *, #4, .F. ) ;
#201 = PERSON_AND_ORGANIZATION_ROLE ( 'creator' ) ;
#202 = CC_DESIGN_DATE_AND_TIME_ASSIGNMENT ( #123, #193, ( #191 ) ) ;
#203 = PERSON ( 'UNSPECIFIED', 'UNSPECIFIED', 'UNSPECIFIED', ('UNSPECIFIED'), ('UNSPECIFIED'), ('UNSPECIFIED') ) ;
#204 = DIRECTION ( 'NONE',  ( 0.0000000000000000000, 1.000000000000000000, 0.0000000000000000000 ) ) ;
#205 = ORIENTED_EDGE ( 'NONE', *, *, #195, .F. ) ;
#206 = FACE_OUTER_BOUND ( 'NONE', #162, .T. ) ;
#207 = COORDINATED_UNIVERSAL_TIME_OFFSET ( 1, 0, .AHEAD. ) ;
#208 = DIRECTION ( 'NONE',  ( -4.275831445896963861E-31, -1.000000000000000000, -1.224646799147354686E-16 ) ) ;
#209 = CARTESIAN_POINT ( 'NONE',  ( 0.0000000000000000000, 0.0000000000000000000, 0.0000000000000000000 ) ) ;
#210 = VERTEX_POINT ( 'NONE', #27 ) ;
#211 = AXIS2_PLACEMENT_3D ( 'NONE', #100, #167, #152 ) ;
#212 = DIRECTION ( 'NONE',  ( 1.000000000000000000, 0.0000000000000000000, 0.0000000000000000000 ) ) ;
#213 = CC_DESIGN_DATE_AND_TIME_ASSIGNMENT ( #36, #154, ( #43 ) ) ;
#214 =( NAMED_UNIT ( * ) PLANE_ANGLE_UNIT ( ) SI_UNIT ( $, .RADIAN. ) );
#215 = CONICAL_SURFACE ( 'NONE', #86, 4.999999999999999112, 0.1745329251994333364 ) ;
#216 = ORIENTED_EDGE ( 'NONE', *, *, #71, .T. ) ;
#217 = ADVANCED_FACE ( 'NONE', ( #238, #78 ), #69, .F. ) ;
#218 = EDGE_LOOP ( 'NONE', ( #216 ) ) ;
#219 = CARTESIAN_POINT ( 'NONE',  ( 1.457221472722074060E-14, -5.130737429346224123E-16, 4.173648177666930970 ) ) ;
#220 = CYLINDRICAL_SURFACE ( 'NONE', #126, 1.500000000000000000 ) ;
#221 = EDGE_LOOP ( 'NONE', ( #58 ) ) ;
#222 = PERSON_AND_ORGANIZATION ( #203, #132 ) ;
#223 = DIRECTION ( 'NONE',  ( 3.491481338843133355E-15, -1.224646799147354686E-16, 1.000000000000000000 ) ) ;
#224 = DIRECTION ( 'NONE',  ( -3.491481338843133355E-15, 1.229317185094960748E-16, -1.000000000000000000 ) ) ;
#225 = VERTEX_POINT ( 'NONE', #176 ) ;
#226 = APPROVAL_DATE_TIME ( #8, #127 ) ;
#227 = CIRCLE ( 'NONE', #158, 0.9499999999999998446 ) ;
#228 = CALENDAR_DATE ( 2021, 9, 12 ) ;
#229 = CIRCLE ( 'NONE', #79, 1.500000000000000000 ) ;
#230 = DIRECTION ( 'NONE',  ( 0.0000000000000000000, -1.000000000000000000, 0.0000000000000000000 ) ) ;
#231 = PRODUCT_RELATED_PRODUCT_CATEGORY ( 'detail', '', ( #9 ) ) ;
#232 = ORIENTED_EDGE ( 'NONE', *, *, #89, .F. ) ;
#233 = DIRECTION ( 'NONE',  ( -3.491481338843133355E-15, 1.229317185094960748E-16, -1.000000000000000000 ) ) ;
#234 = CIRCLE ( 'NONE', #30, 0.9500000000000001776 ) ;
#235 = ORIENTED_EDGE ( 'NONE', *, *, #147, .T. ) ;
#236 = PLANE ( 'NONE',  #122 ) ;
#237 = MANIFOLD_SOLID_BREP ( 'Corps-Déplacer/Copier1[1]', #40 ) ;
#238 = FACE_OUTER_BOUND ( 'NONE', #160, .T. ) ;
#239 = APPROVAL_ROLE ( '' ) ;
#240 = CC_DESIGN_PERSON_AND_ORGANIZATION_ASSIGNMENT ( #84, #138, ( #191 ) ) ;
#241 = CARTESIAN_POINT ( 'NONE',  ( 2.516203644371715951E-14, -1.500000000000000888, 7.206693664315658054 ) ) ;
#242 = AXIS2_PLACEMENT_3D ( 'NONE', #243, #133, #115 ) ;
#243 = CARTESIAN_POINT ( 'NONE',  ( 1.316288464743861212E-13, -4.616918432785527392E-15, 37.69999999999999574 ) ) ;
ENDSEC;
END-ISO-10303-21;
