ISO-10303-21;
HEADER;
FILE_DESCRIPTION (( 'STEP AP203' ),
    '1' );
FILE_NAME ('378228.step',
    '2021-12-09T09:53:57',
    ( '' ),
    ( '' ),
    'SwSTEP 2.0',
    'SolidWorks 2019',
    '' );
FILE_SCHEMA (( 'CONFIG_CONTROL_DESIGN' ));
ENDSEC;

DATA;
#1 = LOCAL_TIME ( 10, 53, 57.00000000000000000, #226 ) ;
#2 = DIRECTION ( 'NONE',  ( 4.292138011278224936E-31, 1.000000000000000000, 1.229317185094960748E-16 ) ) ;
#3 = CC_DESIGN_PERSON_AND_ORGANIZATION_ASSIGNMENT ( #105, #110, ( #186 ) ) ;
#4 = DIRECTION ( 'NONE',  ( -4.275831445896963861E-31, -1.000000000000000000, -1.224646799147354686E-16 ) ) ;
#5 = EDGE_LOOP ( 'NONE', ( #214 ) ) ;
#6 = AXIS2_PLACEMENT_3D ( 'NONE', #7, #30, #138 ) ;
#7 = CARTESIAN_POINT ( 'NONE',  ( 1.316288464743861212E-13, -4.616918432785527392E-15, 37.69999999999999574 ) ) ;
#8 = ADVANCED_FACE ( 'NONE', ( #98, #171 ), #133, .T. ) ;
#9 = ORIENTED_EDGE ( 'NONE', *, *, #165, .F. ) ;
#10 = CLOSED_SHELL ( 'NONE', ( #150, #8, #178, #94, #219, #26 ) ) ;
#11 = DIRECTION ( 'NONE',  ( 3.491481338843133355E-15, -1.224646799147354686E-16, 1.000000000000000000 ) ) ;
#12 = CARTESIAN_POINT ( 'NONE',  ( 1.396592535537253342E-14, -4.917268740379842993E-16, 4.000000000000000000 ) ) ;
#13 = AXIS2_PLACEMENT_3D ( 'NONE', #12, #222, #103 ) ;
#14 = APPLICATION_PROTOCOL_DEFINITION ( 'international standard', 'config_control_design', 1994, #24 ) ;
#15 = DIRECTION ( 'NONE',  ( 0.0000000000000000000, 1.000000000000000000, 0.0000000000000000000 ) ) ;
#16 = CARTESIAN_POINT ( 'NONE',  ( -1.282749433769089158E-30, 0.9000000000000002442, -3.673940397442063812E-16 ) ) ;
#17 = FACE_OUTER_BOUND ( 'NONE', #66, .T. ) ;
#18 = PERSON_AND_ORGANIZATION ( #243, #46 ) ;
#19 = CIRCLE ( 'NONE', #59, 1.500000000000000000 ) ;
#20 = APPROVAL_STATUS ( 'not_yet_approved' ) ;
#21 = APPROVAL_ROLE ( '' ) ;
#22 = SHAPE_DEFINITION_REPRESENTATION ( #31, #189 ) ;
#23 = CARTESIAN_POINT ( 'NONE',  ( 1.316288464743861212E-13, -4.616918432785527392E-15, 37.69999999999999574 ) ) ;
#24 = APPLICATION_CONTEXT ( 'configuration controlled 3d designs of mechanical parts and assemblies' ) ;
#25 = AXIS2_PLACEMENT_3D ( 'NONE', #136, #118, #50 ) ;
#26 = ADVANCED_FACE ( 'NONE', ( #99 ), #193, .F. ) ;
#27 = ORIENTED_EDGE ( 'NONE', *, *, #130, .T. ) ;
#28 = DESIGN_CONTEXT ( 'detailed design', #24, 'design' ) ;
#29 = DIRECTION ( 'NONE',  ( 4.292138011278225812E-31, 1.000000000000000000, 1.229317185094960748E-16 ) ) ;
#30 = DIRECTION ( 'NONE',  ( -3.491481338843133355E-15, 1.224646799147354686E-16, -1.000000000000000000 ) ) ;
#31 = PRODUCT_DEFINITION_SHAPE ( 'NONE', 'NONE',  #169 ) ;
#32 = CIRCLE ( 'NONE', #13, 0.9000000000000001332 ) ;
#33 = EDGE_LOOP ( 'NONE', ( #115 ) ) ;
#34 = DIRECTION ( 'NONE',  ( 4.275831445896963861E-31, 1.000000000000000000, 1.224646799147354686E-16 ) ) ;
#35 = DIRECTION ( 'NONE',  ( -3.491481338843133355E-15, 1.224646799147354686E-16, -1.000000000000000000 ) ) ;
#36 = DIRECTION ( 'NONE',  ( 1.000000000000000000, 0.0000000000000000000, 0.0000000000000000000 ) ) ;
#37 = EDGE_CURVE ( 'NONE', #202, #202, #19, .T. ) ;
#38 = PLANE ( 'NONE',  #117 ) ;
#39 = CARTESIAN_POINT ( 'NONE',  ( 1.326762908760390170E-13, 1.199999999999995515, 37.99999999999999289 ) ) ;
#40 = DIRECTION ( 'NONE',  ( 0.0000000000000000000, -1.000000000000000000, 0.0000000000000000000 ) ) ;
#41 = PERSON_AND_ORGANIZATION ( #243, #46 ) ;
#42 = ADVANCED_FACE ( 'NONE', ( #215, #230 ), #198, .T. ) ;
#43 = APPROVAL_ROLE ( '' ) ;
#44 = CIRCLE ( 'NONE', #106, 0.9000000000000001332 ) ;
#45 = PERSON_AND_ORGANIZATION ( #243, #46 ) ;
#46 = ORGANIZATION ( 'UNSPECIFIED', 'UNSPECIFIED', '' ) ;
#47 = EDGE_LOOP ( 'NONE', ( #176 ) ) ;
#48 = CC_DESIGN_PERSON_AND_ORGANIZATION_ASSIGNMENT ( #45, #92, ( #169 ) ) ;
#49 = EDGE_LOOP ( 'NONE', ( #65 ) ) ;
#50 = DIRECTION ( 'NONE',  ( 0.0000000000000000000, -1.000000000000000000, 0.0000000000000000000 ) ) ;
#51 = ORIENTED_EDGE ( 'NONE', *, *, #130, .F. ) ;
#52 = CONICAL_SURFACE ( 'NONE', #152, 4.999999999999999112, 0.1745329251994333641 ) ;
#53 = DIRECTION ( 'NONE',  ( -4.275831445896963861E-31, -1.000000000000000000, -1.224646799147354686E-16 ) ) ;
#54 = DIRECTION ( 'NONE',  ( 4.275831445896963861E-31, 1.000000000000000000, 1.224646799147354686E-16 ) ) ;
#55 = CC_DESIGN_PERSON_AND_ORGANIZATION_ASSIGNMENT ( #167, #129, ( #164 ) ) ;
#56 = FACE_OUTER_BOUND ( 'NONE', #49, .T. ) ;
#57 = DIRECTION ( 'NONE',  ( -3.491481338843133355E-15, 1.224646799147354686E-16, -1.000000000000000000 ) ) ;
#58 = CALENDAR_DATE ( 2021, 9, 12 ) ;
#59 = AXIS2_PLACEMENT_3D ( 'NONE', #23, #83, #64 ) ;
#60 = AXIS2_PLACEMENT_3D ( 'NONE', #62, #172, #4 ) ;
#61 = EDGE_CURVE ( 'NONE', #179, #179, #242, .T. ) ;
#62 = CARTESIAN_POINT ( 'NONE',  ( 1.396592535537253342E-14, 1.124819836996395395E-32, 4.000000000000000000 ) ) ;
#63 = ORIENTED_EDGE ( 'NONE', *, *, #61, .T. ) ;
#64 = DIRECTION ( 'NONE',  ( 0.0000000000000000000, 1.000000000000000000, 0.0000000000000000000 ) ) ;
#65 = ORIENTED_EDGE ( 'NONE', *, *, #61, .F. ) ;
#66 = EDGE_LOOP ( 'NONE', ( #139 ) ) ;
#67 = CC_DESIGN_APPROVAL ( #77, ( #186 ) ) ;
#68 = PLANE ( 'NONE',  #76 ) ;
#69 = APPROVAL_ROLE ( '' ) ;
#70 = VERTEX_POINT ( 'NONE', #143 ) ;
#71 =( LENGTH_UNIT ( ) NAMED_UNIT ( * ) SI_UNIT ( .MILLI., .METRE. ) );
#72 = DIRECTION ( 'NONE',  ( -3.491481338843133355E-15, 1.224646799147354686E-16, -1.000000000000000000 ) ) ;
#73 = CIRCLE ( 'NONE', #228, 0.9151922469877921129 ) ;
#74 = CALENDAR_DATE ( 2021, 9, 12 ) ;
#75 = DATE_AND_TIME ( #184, #100 ) ;
#76 = AXIS2_PLACEMENT_3D ( 'NONE', #220, #57, #54 ) ;
#77 = APPROVAL ( #20, 'UNSPECIFIED' ) ;
#78 = MANIFOLD_SOLID_BREP ( 'Corps-Déplacer/Copier1[2]', #151 ) ;
#79 = FACE_OUTER_BOUND ( 'NONE', #84, .T. ) ;
#80 = ORIENTED_EDGE ( 'NONE', *, *, #37, .F. ) ;
#81 = UNCERTAINTY_MEASURE_WITH_UNIT (LENGTH_MEASURE( 1.000000000000000082E-05 ), #71, 'distance_accuracy_value', 'NONE');
#82 = EDGE_LOOP ( 'NONE', ( #116 ) ) ;
#83 = DIRECTION ( 'NONE',  ( -3.491481338843133355E-15, 1.224646799147354686E-16, -1.000000000000000000 ) ) ;
#84 = EDGE_LOOP ( 'NONE', ( #195 ) ) ;
#85 = APPROVAL ( #187, 'UNSPECIFIED' ) ;
#86 = FACE_OUTER_BOUND ( 'NONE', #96, .T. ) ;
#87 = AXIS2_PLACEMENT_3D ( 'NONE', #177, #235, #89 ) ;
#88 = CARTESIAN_POINT ( 'NONE',  ( 1.396592535537253342E-14, 0.8999999999999995781, 4.000000000000000000 ) ) ;
#89 = DIRECTION ( 'NONE',  ( 4.275831445896963861E-31, 1.000000000000000000, 1.224646799147354686E-16 ) ) ;
#90 = APPROVAL_DATE_TIME ( #203, #85 ) ;
#91 = DIRECTION ( 'NONE',  ( 0.0000000000000000000, 1.000000000000000000, 0.0000000000000000000 ) ) ;
#92 = PERSON_AND_ORGANIZATION_ROLE ( 'creator' ) ;
#93 = PERSON_AND_ORGANIZATION ( #243, #46 ) ;
#94 = ADVANCED_FACE ( 'NONE', ( #196, #79 ), #153, .F. ) ;
#95 = DIRECTION ( 'NONE',  ( -3.491481338843133355E-15, 1.229317185094960748E-16, -1.000000000000000000 ) ) ;
#96 = EDGE_LOOP ( 'NONE', ( #119 ) ) ;
#97 = PRODUCT_RELATED_PRODUCT_CATEGORY ( 'detail', '', ( #121 ) ) ;
#98 = FACE_BOUND ( 'NONE', #82, .T. ) ;
#99 = FACE_OUTER_BOUND ( 'NONE', #101, .T. ) ;
#100 = LOCAL_TIME ( 10, 53, 57.00000000000000000, #166 ) ;
#101 = EDGE_LOOP ( 'NONE', ( #27 ) ) ;
#102 = CC_DESIGN_PERSON_AND_ORGANIZATION_ASSIGNMENT ( #127, #108, ( #121 ) ) ;
#103 = DIRECTION ( 'NONE',  ( 0.0000000000000000000, 1.000000000000000000, 0.0000000000000000000 ) ) ;
#104 = CARTESIAN_POINT ( 'NONE',  ( 1.316288464743861212E-13, 1.499999999999995559, 37.69999999999999574 ) ) ;
#105 = PERSON_AND_ORGANIZATION ( #243, #46 ) ;
#106 = AXIS2_PLACEMENT_3D ( 'NONE', #173, #229, #15 ) ;
#107 = CARTESIAN_POINT ( 'NONE',  ( 1.326762908760390170E-13, -4.653657836759946674E-15, 37.99999999999999289 ) ) ;
#108 = PERSON_AND_ORGANIZATION_ROLE ( 'design_owner' ) ;
#109 = FACE_OUTER_BOUND ( 'NONE', #5, .T. ) ;
#110 = PERSON_AND_ORGANIZATION_ROLE ( 'classification_officer' ) ;
#111 = PERSON_AND_ORGANIZATION ( #243, #46 ) ;
#112 = LOCAL_TIME ( 10, 53, 57.00000000000000000, #159 ) ;
#113 = APPROVAL_STATUS ( 'not_yet_approved' ) ;
#114 = COORDINATED_UNIVERSAL_TIME_OFFSET ( 1, 0, .AHEAD. ) ;
#115 = ORIENTED_EDGE ( 'NONE', *, *, #188, .F. ) ;
#116 = ORIENTED_EDGE ( 'NONE', *, *, #211, .T. ) ;
#117 = AXIS2_PLACEMENT_3D ( 'NONE', #205, #11, #53 ) ;
#118 = DIRECTION ( 'NONE',  ( -3.491481338843133355E-15, 1.229317185094960748E-16, -1.000000000000000000 ) ) ;
#119 = ORIENTED_EDGE ( 'NONE', *, *, #188, .T. ) ;
#120 = EDGE_LOOP ( 'NONE', ( #51 ) ) ;
#121 = PRODUCT ( '378228', '378228', '', ( #223 ) ) ;
#122 = EDGE_CURVE ( 'NONE', #162, #162, #44, .T. ) ;
#123 = CC_DESIGN_APPROVAL ( #201, ( #164 ) ) ;
#124 = DIRECTION ( 'NONE',  ( -3.491481338843133355E-15, 1.229317185094960748E-16, -1.000000000000000000 ) ) ;
#125 = FACE_BOUND ( 'NONE', #197, .T. ) ;
#126 = CARTESIAN_POINT ( 'NONE',  ( 1.457221472722074060E-14, -5.130737429346224123E-16, 4.173648177666930970 ) ) ;
#127 = PERSON_AND_ORGANIZATION ( #243, #46 ) ;
#128 = DIRECTION ( 'NONE',  ( 3.491481338843133355E-15, -1.229317185094960748E-16, 1.000000000000000000 ) ) ;
#129 = PERSON_AND_ORGANIZATION_ROLE ( 'design_supplier' ) ;
#130 = EDGE_CURVE ( 'NONE', #217, #217, #32, .T. ) ;
#131 =( NAMED_UNIT ( * ) SI_UNIT ( $, .STERADIAN. ) SOLID_ANGLE_UNIT ( ) );
#132 = AXIS2_PLACEMENT_3D ( 'NONE', #200, #35, #34 ) ;
#133 = CONICAL_SURFACE ( 'NONE', #6, 1.500000000000000000, 0.7853981633974569387 ) ;
#134 = CARTESIAN_POINT ( 'NONE',  ( 1.396592535537253342E-14, -4.336808689942017736E-16, 4.000000000000000000 ) ) ;
#135 = CC_DESIGN_PERSON_AND_ORGANIZATION_ASSIGNMENT ( #41, #163, ( #164 ) ) ;
#136 = CARTESIAN_POINT ( 'NONE',  ( 2.615209517574293971E-14, -9.207902579376847536E-16, 7.490257755296544140 ) ) ;
#137 = CIRCLE ( 'NONE', #238, 1.200000000000000178 ) ;
#138 = DIRECTION ( 'NONE',  ( 0.0000000000000000000, 1.000000000000000000, 0.0000000000000000000 ) ) ;
#139 = ORIENTED_EDGE ( 'NONE', *, *, #37, .T. ) ;
#140 = APPROVAL_PERSON_ORGANIZATION ( #111, #77, #69 ) ;
#141 = PLANE ( 'NONE',  #132 ) ;
#142 = DATE_TIME_ROLE ( 'creation_date' ) ;
#143 = CARTESIAN_POINT ( 'NONE',  ( 1.457221472722074060E-14, 0.9151922469877915578, 4.173648177666930970 ) ) ;
#144 =( NAMED_UNIT ( * ) PLANE_ANGLE_UNIT ( ) SI_UNIT ( $, .RADIAN. ) );
#145 = CC_DESIGN_DATE_AND_TIME_ASSIGNMENT ( #236, #185, ( #186 ) ) ;
#146 = FACE_OUTER_BOUND ( 'NONE', #216, .T. ) ;
#147 = DATE_AND_TIME ( #227, #1 ) ;
#148 = AXIS2_PLACEMENT_3D ( 'NONE', #206, #240, #36 ) ;
#149 = VERTEX_POINT ( 'NONE', #39 ) ;
#150 = ADVANCED_FACE ( 'NONE', ( #56, #17 ), #181, .T. ) ;
#151 = CLOSED_SHELL ( 'NONE', ( #192, #42, #231 ) ) ;
#152 = AXIS2_PLACEMENT_3D ( 'NONE', #224, #128, #40 ) ;
#153 = TOROIDAL_SURFACE ( 'NONE', #194, 1.899999999999999911, 1.000000000000000000 ) ;
#154 = MANIFOLD_SOLID_BREP ( 'Corps-Déplacer/Copier1[1]', #10 ) ;
#155 = DIRECTION ( 'NONE',  ( -3.491481338843133355E-15, 1.229317185094960748E-16, -1.000000000000000000 ) ) ;
#156 = EDGE_LOOP ( 'NONE', ( #80 ) ) ;
#157 = DIRECTION ( 'NONE',  ( 0.0000000000000000000, 1.000000000000000000, 0.0000000000000000000 ) ) ;
#158 = CARTESIAN_POINT ( 'NONE',  ( 1.396592535537253342E-14, 0.8999999999999995781, 4.000000000000000000 ) ) ;
#159 = COORDINATED_UNIVERSAL_TIME_OFFSET ( 1, 0, .AHEAD. ) ;
#160 = DIRECTION ( 'NONE',  ( 4.292138011278224936E-31, 1.000000000000000000, 1.229317185094960995E-16 ) ) ;
#161 = APPROVAL_DATE_TIME ( #147, #201 ) ;
#162 = VERTEX_POINT ( 'NONE', #88 ) ;
#163 = PERSON_AND_ORGANIZATION_ROLE ( 'creator' ) ;
#164 = PRODUCT_DEFINITION_FORMATION_WITH_SPECIFIED_SOURCE ( 'ANY', '', #121, .NOT_KNOWN. ) ;
#165 = EDGE_CURVE ( 'NONE', #70, #70, #73, .T. ) ;
#166 = COORDINATED_UNIVERSAL_TIME_OFFSET ( 1, 0, .AHEAD. ) ;
#167 = PERSON_AND_ORGANIZATION ( #243, #46 ) ;
#168 = AXIS2_PLACEMENT_3D ( 'NONE', #232, #95, #2 ) ;
#169 = PRODUCT_DEFINITION ( 'UNKNOWN', '', #164, #28 ) ;
#170 = LOCAL_TIME ( 10, 53, 57.00000000000000000, #114 ) ;
#171 = FACE_OUTER_BOUND ( 'NONE', #156, .T. ) ;
#172 = DIRECTION ( 'NONE',  ( 3.491481338843133355E-15, -1.224646799147354686E-16, 1.000000000000000000 ) ) ;
#173 = CARTESIAN_POINT ( 'NONE',  ( 1.396592535537253342E-14, -4.917268740379842993E-16, 4.000000000000000000 ) ) ;
#174 = EDGE_LOOP ( 'NONE', ( #212 ) ) ;
#175 = CIRCLE ( 'NONE', #213, 0.9000000000000002442 ) ;
#176 = ORIENTED_EDGE ( 'NONE', *, *, #122, .F. ) ;
#177 = CARTESIAN_POINT ( 'NONE',  ( 0.0000000000000000000, 0.0000000000000000000, 0.0000000000000000000 ) ) ;
#178 = ADVANCED_FACE ( 'NONE', ( #109 ), #68, .F. ) ;
#179 = VERTEX_POINT ( 'NONE', #183 ) ;
#180 =( GEOMETRIC_REPRESENTATION_CONTEXT ( 3 ) GLOBAL_UNCERTAINTY_ASSIGNED_CONTEXT ( ( #81 ) ) GLOBAL_UNIT_ASSIGNED_CONTEXT ( ( #71, #144, #131 ) ) REPRESENTATION_CONTEXT ( 'NONE', 'WORKASPACE' ) );
#181 = CYLINDRICAL_SURFACE ( 'NONE', #87, 1.500000000000000000 ) ;
#182 = COORDINATED_UNIVERSAL_TIME_OFFSET ( 1, 0, .AHEAD. ) ;
#183 = CARTESIAN_POINT ( 'NONE',  ( 2.615209517574293971E-14, -1.500000000000000888, 7.490257755296544140 ) ) ;
#184 = CALENDAR_DATE ( 2021, 9, 12 ) ;
#185 = DATE_TIME_ROLE ( 'classification_date' ) ;
#186 = SECURITY_CLASSIFICATION ( '', '', #239 ) ;
#187 = APPROVAL_STATUS ( 'not_yet_approved' ) ;
#188 = EDGE_CURVE ( 'NONE', #221, #221, #175, .T. ) ;
#189 = ADVANCED_BREP_SHAPE_REPRESENTATION ( '378228', ( #154, #78, #148 ), #180 ) ;
#190 = APPROVAL_DATE_TIME ( #209, #77 ) ;
#191 = CALENDAR_DATE ( 2021, 9, 12 ) ;
#192 = ADVANCED_FACE ( 'NONE', ( #237 ), #38, .T. ) ;
#193 = PLANE ( 'NONE',  #60 ) ;
#194 = AXIS2_PLACEMENT_3D ( 'NONE', #134, #155, #29 ) ;
#195 = ORIENTED_EDGE ( 'NONE', *, *, #165, .T. ) ;
#196 = FACE_OUTER_BOUND ( 'NONE', #120, .T. ) ;
#197 = EDGE_LOOP ( 'NONE', ( #9 ) ) ;
#198 = CYLINDRICAL_SURFACE ( 'NONE', #168, 0.9000000000000002442 ) ;
#199 = LOCAL_TIME ( 10, 53, 57.00000000000000000, #182 ) ;
#200 = CARTESIAN_POINT ( 'NONE',  ( -3.206873584422722458E-31, 1.124819836996396080E-32, -9.184850993605159531E-17 ) ) ;
#201 = APPROVAL ( #113, 'UNSPECIFIED' ) ;
#202 = VERTEX_POINT ( 'NONE', #104 ) ;
#203 = DATE_AND_TIME ( #58, #199 ) ;
#204 = CARTESIAN_POINT ( 'NONE',  ( -1.669041854784129446E-30, 5.876536735002958635E-32, -4.780325864027528831E-16 ) ) ;
#205 = CARTESIAN_POINT ( 'NONE',  ( 1.396592535537253342E-14, 1.124819836996395395E-32, 4.000000000000000000 ) ) ;
#206 = CARTESIAN_POINT ( 'NONE',  ( 0.0000000000000000000, 0.0000000000000000000, 0.0000000000000000000 ) ) ;
#207 = APPLICATION_CONTEXT ( 'configuration controlled 3d designs of mechanical parts and assemblies' ) ;
#208 = CC_DESIGN_SECURITY_CLASSIFICATION ( #186, ( #164 ) ) ;
#209 = DATE_AND_TIME ( #191, #170 ) ;
#210 = APPROVAL_PERSON_ORGANIZATION ( #93, #85, #43 ) ;
#211 = EDGE_CURVE ( 'NONE', #149, #149, #137, .T. ) ;
#212 = ORIENTED_EDGE ( 'NONE', *, *, #122, .T. ) ;
#213 = AXIS2_PLACEMENT_3D ( 'NONE', #204, #124, #160 ) ;
#214 = ORIENTED_EDGE ( 'NONE', *, *, #211, .F. ) ;
#215 = FACE_OUTER_BOUND ( 'NONE', #33, .T. ) ;
#216 = EDGE_LOOP ( 'NONE', ( #63 ) ) ;
#217 = VERTEX_POINT ( 'NONE', #158 ) ;
#218 = APPROVAL_PERSON_ORGANIZATION ( #18, #201, #21 ) ;
#219 = ADVANCED_FACE ( 'NONE', ( #146, #125 ), #52, .T. ) ;
#220 = CARTESIAN_POINT ( 'NONE',  ( 1.326762908760390170E-13, 2.197316402903955485E-13, 37.99999999999999289 ) ) ;
#221 = VERTEX_POINT ( 'NONE', #16 ) ;
#222 = DIRECTION ( 'NONE',  ( -3.491481338843133355E-15, 1.229317185094960748E-16, -1.000000000000000000 ) ) ;
#223 = MECHANICAL_CONTEXT ( 'NONE', #207, 'mechanical' ) ;
#224 = CARTESIAN_POINT ( 'NONE',  ( 9.545620641754722566E-14, -3.360921728768112322E-15, 27.33974412395847509 ) ) ;
#225 = APPLICATION_PROTOCOL_DEFINITION ( 'international standard', 'config_control_design', 1994, #207 ) ;
#226 = COORDINATED_UNIVERSAL_TIME_OFFSET ( 1, 0, .AHEAD. ) ;
#227 = CALENDAR_DATE ( 2021, 9, 12 ) ;
#228 = AXIS2_PLACEMENT_3D ( 'NONE', #126, #233, #91 ) ;
#229 = DIRECTION ( 'NONE',  ( -3.491481338843133355E-15, 1.229317185094960748E-16, -1.000000000000000000 ) ) ;
#230 = FACE_OUTER_BOUND ( 'NONE', #174, .T. ) ;
#231 = ADVANCED_FACE ( 'NONE', ( #86 ), #141, .T. ) ;
#232 = CARTESIAN_POINT ( 'NONE',  ( 0.0000000000000000000, 0.0000000000000000000, 0.0000000000000000000 ) ) ;
#233 = DIRECTION ( 'NONE',  ( -3.491481338843133355E-15, 1.229317185094960748E-16, -1.000000000000000000 ) ) ;
#234 = CC_DESIGN_APPROVAL ( #85, ( #169 ) ) ;
#235 = DIRECTION ( 'NONE',  ( -3.491481338843133355E-15, 1.224646799147354686E-16, -1.000000000000000000 ) ) ;
#236 = DATE_AND_TIME ( #74, #112 ) ;
#237 = FACE_OUTER_BOUND ( 'NONE', #47, .T. ) ;
#238 = AXIS2_PLACEMENT_3D ( 'NONE', #107, #72, #157 ) ;
#239 = SECURITY_CLASSIFICATION_LEVEL ( 'unclassified' ) ;
#240 = DIRECTION ( 'NONE',  ( 0.0000000000000000000, 0.0000000000000000000, 1.000000000000000000 ) ) ;
#241 = CC_DESIGN_DATE_AND_TIME_ASSIGNMENT ( #75, #142, ( #169 ) ) ;
#242 = CIRCLE ( 'NONE', #25, 1.500000000000000000 ) ;
#243 = PERSON ( 'UNSPECIFIED', 'UNSPECIFIED', 'UNSPECIFIED', ('UNSPECIFIED'), ('UNSPECIFIED'), ('UNSPECIFIED') ) ;
ENDSEC;
END-ISO-10303-21;
