ISO-10303-21;
HEADER;
FILE_DESCRIPTION (( 'STEP AP203' ),
    '1' );
FILE_NAME ('378227.step',
    '2021-12-09T09:53:56',
    ( '' ),
    ( '' ),
    'SwSTEP 2.0',
    'SolidWorks 2019',
    '' );
FILE_SCHEMA (( 'CONFIG_CONTROL_DESIGN' ));
ENDSEC;

DATA;
#1 = AXIS2_PLACEMENT_3D ( 'NONE', #190, #133, #21 ) ;
#2 = CARTESIAN_POINT ( 'NONE',  ( 0.0000000000000000000, 0.0000000000000000000, 0.0000000000000000000 ) ) ;
#3 = DIRECTION ( 'NONE',  ( 0.0000000000000000000, -1.000000000000000000, 0.0000000000000000000 ) ) ;
#4 = ADVANCED_FACE ( 'NONE', ( #103, #63 ), #13, .F. ) ;
#5 = CARTESIAN_POINT ( 'NONE',  ( 1.396592535537253342E-14, 0.8499999999999996447, 4.000000000000000000 ) ) ;
#6 = DIRECTION ( 'NONE',  ( -3.491481338843133355E-15, 1.229317185094960748E-16, -1.000000000000000000 ) ) ;
#7 = ADVANCED_FACE ( 'NONE', ( #243 ), #116, .T. ) ;
#8 = EDGE_LOOP ( 'NONE', ( #43 ) ) ;
#9 = COORDINATED_UNIVERSAL_TIME_OFFSET ( 1, 0, .AHEAD. ) ;
#10 = CARTESIAN_POINT ( 'NONE',  ( 1.396592535537253342E-14, -4.917268740379842993E-16, 4.000000000000000000 ) ) ;
#11 = VERTEX_POINT ( 'NONE', #54 ) ;
#12 = APPROVAL_ROLE ( '' ) ;
#13 = TOROIDAL_SURFACE ( 'NONE', #73, 1.850000000000000089, 1.000000000000000000 ) ;
#14 = AXIS2_PLACEMENT_3D ( 'NONE', #2, #81, #151 ) ;
#15 = CARTESIAN_POINT ( 'NONE',  ( 1.396592535537253342E-14, 0.8499999999999996447, 4.000000000000000000 ) ) ;
#16 = LOCAL_TIME ( 10, 53, 56.00000000000000000, #162 ) ;
#17 = MANIFOLD_SOLID_BREP ( 'Corps-Déplacer/Copier1[2]', #148 ) ;
#18 = PLANE ( 'NONE',  #192 ) ;
#19 = DIRECTION ( 'NONE',  ( 3.491481338843133355E-15, -1.224646799147354686E-16, 1.000000000000000000 ) ) ;
#20 = EDGE_LOOP ( 'NONE', ( #115 ) ) ;
#21 = DIRECTION ( 'NONE',  ( 4.275831445896963861E-31, 1.000000000000000000, 1.224646799147354686E-16 ) ) ;
#22 = CARTESIAN_POINT ( 'NONE',  ( 2.714215390776871991E-14, -9.556492789495480750E-16, 7.773821846277430225 ) ) ;
#23 = AXIS2_PLACEMENT_3D ( 'NONE', #188, #100, #168 ) ;
#24 = COORDINATED_UNIVERSAL_TIME_OFFSET ( 1, 0, .AHEAD. ) ;
#25 = DESIGN_CONTEXT ( 'detailed design', #111, 'design' ) ;
#26 = VERTEX_POINT ( 'NONE', #5 ) ;
#27 = DIRECTION ( 'NONE',  ( 0.0000000000000000000, 0.0000000000000000000, 1.000000000000000000 ) ) ;
#28 = ADVANCED_FACE ( 'NONE', ( #228 ), #64, .F. ) ;
#29 = CARTESIAN_POINT ( 'NONE',  ( 1.316288464743861212E-13, -4.616918432785527392E-15, 37.69999999999999574 ) ) ;
#30 = ORIENTED_EDGE ( 'NONE', *, *, #138, .T. ) ;
#31 = VERTEX_POINT ( 'NONE', #68 ) ;
#32 = APPROVAL_ROLE ( '' ) ;
#33 = FACE_OUTER_BOUND ( 'NONE', #102, .T. ) ;
#34 = APPLICATION_PROTOCOL_DEFINITION ( 'international standard', 'config_control_design', 1994, #111 ) ;
#35 = FACE_BOUND ( 'NONE', #212, .T. ) ;
#36 =( NAMED_UNIT ( * ) SI_UNIT ( $, .STERADIAN. ) SOLID_ANGLE_UNIT ( ) );
#37 = PERSON ( 'UNSPECIFIED', 'UNSPECIFIED', 'UNSPECIFIED', ('UNSPECIFIED'), ('UNSPECIFIED'), ('UNSPECIFIED') ) ;
#38 = ADVANCED_FACE ( 'NONE', ( #170, #207 ), #44, .T. ) ;
#39 = VERTEX_POINT ( 'NONE', #15 ) ;
#40 = PRODUCT_DEFINITION ( 'UNKNOWN', '', #241, #25 ) ;
#41 = CIRCLE ( 'NONE', #163, 0.8500000000000001998 ) ;
#42 = DIRECTION ( 'NONE',  ( 0.0000000000000000000, 1.000000000000000000, 0.0000000000000000000 ) ) ;
#43 = ORIENTED_EDGE ( 'NONE', *, *, #169, .T. ) ;
#44 = CYLINDRICAL_SURFACE ( 'NONE', #14, 1.500000000000000000 ) ;
#45 = APPROVAL ( #139, 'UNSPECIFIED' ) ;
#46 = LOCAL_TIME ( 10, 53, 56.00000000000000000, #9 ) ;
#47 = DIRECTION ( 'NONE',  ( -3.491481338843133355E-15, 1.229317185094960748E-16, -1.000000000000000000 ) ) ;
#48 = VERTEX_POINT ( 'NONE', #172 ) ;
#49 = CONICAL_SURFACE ( 'NONE', #119, 1.500000000000000000, 0.7853981633974569387 ) ;
#50 = ORIENTED_EDGE ( 'NONE', *, *, #138, .F. ) ;
#51 = SECURITY_CLASSIFICATION_LEVEL ( 'unclassified' ) ;
#52 = DIRECTION ( 'NONE',  ( 0.0000000000000000000, 1.000000000000000000, 0.0000000000000000000 ) ) ;
#53 = ORIENTED_EDGE ( 'NONE', *, *, #185, .F. ) ;
#54 = CARTESIAN_POINT ( 'NONE',  ( 2.714215390776871991E-14, -1.500000000000000888, 7.773821846277430225 ) ) ;
#55 = CALENDAR_DATE ( 2021, 9, 12 ) ;
#56 = DIRECTION ( 'NONE',  ( -3.491481338843133355E-15, 1.224646799147354686E-16, -1.000000000000000000 ) ) ;
#57 = CARTESIAN_POINT ( 'NONE',  ( 1.457221472722074060E-14, 0.8651922469877916244, 4.173648177666930970 ) ) ;
#58 = MECHANICAL_CONTEXT ( 'NONE', #204, 'mechanical' ) ;
#59 = PERSON_AND_ORGANIZATION_ROLE ( 'design_supplier' ) ;
#60 = CARTESIAN_POINT ( 'NONE',  ( -1.647581164727738300E-30, 5.800975697924466857E-32, -4.718860004772780966E-16 ) ) ;
#61 = ADVANCED_FACE ( 'NONE', ( #33 ), #126, .T. ) ;
#62 = APPROVAL ( #195, 'UNSPECIFIED' ) ;
#63 = FACE_OUTER_BOUND ( 'NONE', #227, .T. ) ;
#64 = PLANE ( 'NONE',  #1 ) ;
#65 = DIRECTION ( 'NONE',  ( -3.491481338843133355E-15, 1.229317185094960748E-16, -1.000000000000000000 ) ) ;
#66 = AXIS2_PLACEMENT_3D ( 'NONE', #60, #165, #220 ) ;
#67 = EDGE_LOOP ( 'NONE', ( #135 ) ) ;
#68 = CARTESIAN_POINT ( 'NONE',  ( 1.316288464743861212E-13, 1.499999999999995559, 37.69999999999999574 ) ) ;
#69 = CARTESIAN_POINT ( 'NONE',  ( 1.326762908760390170E-13, -4.653657836759946674E-15, 37.99999999999999289 ) ) ;
#70 = DATE_AND_TIME ( #74, #208 ) ;
#71 = APPROVAL_DATE_TIME ( #237, #62 ) ;
#72 = CARTESIAN_POINT ( 'NONE',  ( 9.644626514957299324E-14, -3.395780749779975249E-15, 27.62330821493935673 ) ) ;
#73 = AXIS2_PLACEMENT_3D ( 'NONE', #203, #114, #226 ) ;
#74 = CALENDAR_DATE ( 2021, 9, 12 ) ;
#75 = EDGE_CURVE ( 'NONE', #39, #39, #41, .T. ) ;
#76 = APPROVAL_PERSON_ORGANIZATION ( #193, #62, #32 ) ;
#77 = AXIS2_PLACEMENT_3D ( 'NONE', #136, #86, #157 ) ;
#78 = AXIS2_PLACEMENT_3D ( 'NONE', #158, #214, #233 ) ;
#79 = ADVANCED_FACE ( 'NONE', ( #196, #236 ), #87, .T. ) ;
#80 = ORIENTED_EDGE ( 'NONE', *, *, #185, .T. ) ;
#81 = DIRECTION ( 'NONE',  ( -3.491481338843133355E-15, 1.224646799147354686E-16, -1.000000000000000000 ) ) ;
#82 = EDGE_LOOP ( 'NONE', ( #159 ) ) ;
#83 = DIRECTION ( 'NONE',  ( -3.491481338843133355E-15, 1.224646799147354686E-16, -1.000000000000000000 ) ) ;
#84 = AXIS2_PLACEMENT_3D ( 'NONE', #72, #144, #219 ) ;
#85 = PERSON_AND_ORGANIZATION ( #37, #130 ) ;
#86 = DIRECTION ( 'NONE',  ( -3.491481338843133355E-15, 1.229317185094960748E-16, -1.000000000000000000 ) ) ;
#87 = CYLINDRICAL_SURFACE ( 'NONE', #78, 0.8500000000000000888 ) ;
#88 = COORDINATED_UNIVERSAL_TIME_OFFSET ( 1, 0, .AHEAD. ) ;
#89 = DIRECTION ( 'NONE',  ( -3.491481338843133355E-15, 1.224646799147354686E-16, -1.000000000000000000 ) ) ;
#90 = EDGE_CURVE ( 'NONE', #95, #95, #224, .T. ) ;
#91 = CONICAL_SURFACE ( 'NONE', #84, 4.999999999999999112, 0.1745329251994333919 ) ;
#92 = PERSON_AND_ORGANIZATION ( #37, #130 ) ;
#93 = ADVANCED_BREP_SHAPE_REPRESENTATION ( '378227', ( #181, #17, #96 ), #186 ) ;
#94 = DATE_TIME_ROLE ( 'creation_date' ) ;
#95 = VERTEX_POINT ( 'NONE', #166 ) ;
#96 = AXIS2_PLACEMENT_3D ( 'NONE', #213, #27, #104 ) ;
#97 = PRODUCT ( '378227', '378227', '', ( #58 ) ) ;
#98 = CARTESIAN_POINT ( 'NONE',  ( 1.316288464743861212E-13, -4.616918432785527392E-15, 37.69999999999999574 ) ) ;
#99 = CC_DESIGN_PERSON_AND_ORGANIZATION_ASSIGNMENT ( #238, #122, ( #40 ) ) ;
#100 = DIRECTION ( 'NONE',  ( 3.491481338843133355E-15, -1.224646799147354686E-16, 1.000000000000000000 ) ) ;
#101 = CARTESIAN_POINT ( 'NONE',  ( 1.396592535537253342E-14, -4.917268740379842993E-16, 4.000000000000000000 ) ) ;
#102 = EDGE_LOOP ( 'NONE', ( #217 ) ) ;
#103 = FACE_OUTER_BOUND ( 'NONE', #206, .T. ) ;
#104 = DIRECTION ( 'NONE',  ( 1.000000000000000000, 0.0000000000000000000, 0.0000000000000000000 ) ) ;
#105 = EDGE_LOOP ( 'NONE', ( #176 ) ) ;
#106 = CALENDAR_DATE ( 2021, 9, 12 ) ;
#107 = DIRECTION ( 'NONE',  ( 0.0000000000000000000, 1.000000000000000000, 0.0000000000000000000 ) ) ;
#108 = ADVANCED_FACE ( 'NONE', ( #123, #211 ), #49, .T. ) ;
#109 = CARTESIAN_POINT ( 'NONE',  ( -3.206873584422722458E-31, 1.124819836996396080E-32, -9.184850993605159531E-17 ) ) ;
#110 = SECURITY_CLASSIFICATION ( '', '', #51 ) ;
#111 = APPLICATION_CONTEXT ( 'configuration controlled 3d designs of mechanical parts and assemblies' ) ;
#112 =( LENGTH_UNIT ( ) NAMED_UNIT ( * ) SI_UNIT ( .MILLI., .METRE. ) );
#113 = ADVANCED_FACE ( 'NONE', ( #223 ), #18, .F. ) ;
#114 = DIRECTION ( 'NONE',  ( -3.491481338843133355E-15, 1.229317185094960748E-16, -1.000000000000000000 ) ) ;
#115 = ORIENTED_EDGE ( 'NONE', *, *, #75, .F. ) ;
#116 = PLANE ( 'NONE',  #23 ) ;
#117 = AXIS2_PLACEMENT_3D ( 'NONE', #101, #65, #107 ) ;
#118 = ORIENTED_EDGE ( 'NONE', *, *, #222, .F. ) ;
#119 = AXIS2_PLACEMENT_3D ( 'NONE', #29, #184, #42 ) ;
#120 = DATE_TIME_ROLE ( 'classification_date' ) ;
#121 = UNCERTAINTY_MEASURE_WITH_UNIT (LENGTH_MEASURE( 1.000000000000000082E-05 ), #112, 'distance_accuracy_value', 'NONE');
#122 = PERSON_AND_ORGANIZATION_ROLE ( 'creator' ) ;
#123 = FACE_BOUND ( 'NONE', #67, .T. ) ;
#124 = EDGE_LOOP ( 'NONE', ( #234 ) ) ;
#125 = PERSON_AND_ORGANIZATION_ROLE ( 'classification_officer' ) ;
#126 = PLANE ( 'NONE',  #239 ) ;
#127 = APPROVAL_STATUS ( 'not_yet_approved' ) ;
#128 = FACE_OUTER_BOUND ( 'NONE', #8, .T. ) ;
#129 = PERSON_AND_ORGANIZATION ( #37, #130 ) ;
#130 = ORGANIZATION ( 'UNSPECIFIED', 'UNSPECIFIED', '' ) ;
#131 = CC_DESIGN_DATE_AND_TIME_ASSIGNMENT ( #194, #94, ( #40 ) ) ;
#132 = CIRCLE ( 'NONE', #210, 1.500000000000000000 ) ;
#133 = DIRECTION ( 'NONE',  ( -3.491481338843133355E-15, 1.224646799147354686E-16, -1.000000000000000000 ) ) ;
#134 = ORIENTED_EDGE ( 'NONE', *, *, #75, .T. ) ;
#135 = ORIENTED_EDGE ( 'NONE', *, *, #90, .T. ) ;
#136 = CARTESIAN_POINT ( 'NONE',  ( 1.457221472722074060E-14, -5.130737429346224123E-16, 4.173648177666930970 ) ) ;
#137 = DIRECTION ( 'NONE',  ( 0.0000000000000000000, 1.000000000000000000, 0.0000000000000000000 ) ) ;
#138 = EDGE_CURVE ( 'NONE', #31, #31, #182, .T. ) ;
#139 = APPROVAL_STATUS ( 'not_yet_approved' ) ;
#140 = DIRECTION ( 'NONE',  ( 4.275831445896963861E-31, 1.000000000000000000, 1.224646799147354686E-16 ) ) ;
#141 = VERTEX_POINT ( 'NONE', #57 ) ;
#142 = AXIS2_PLACEMENT_3D ( 'NONE', #69, #56, #137 ) ;
#143 = APPROVAL_ROLE ( '' ) ;
#144 = DIRECTION ( 'NONE',  ( 3.491481338843133355E-15, -1.229317185094960748E-16, 1.000000000000000000 ) ) ;
#145 = SHAPE_DEFINITION_REPRESENTATION ( #187, #93 ) ;
#146 = CC_DESIGN_PERSON_AND_ORGANIZATION_ASSIGNMENT ( #129, #125, ( #110 ) ) ;
#147 = APPROVAL_PERSON_ORGANIZATION ( #85, #45, #143 ) ;
#148 = CLOSED_SHELL ( 'NONE', ( #7, #79, #61 ) ) ;
#149 = AXIS2_PLACEMENT_3D ( 'NONE', #98, #83, #153 ) ;
#150 = EDGE_LOOP ( 'NONE', ( #30 ) ) ;
#151 = DIRECTION ( 'NONE',  ( 4.275831445896963861E-31, 1.000000000000000000, 1.224646799147354686E-16 ) ) ;
#152 = EDGE_LOOP ( 'NONE', ( #155 ) ) ;
#153 = DIRECTION ( 'NONE',  ( 0.0000000000000000000, 1.000000000000000000, 0.0000000000000000000 ) ) ;
#154 = CIRCLE ( 'NONE', #117, 0.8500000000000001998 ) ;
#155 = ORIENTED_EDGE ( 'NONE', *, *, #90, .F. ) ;
#156 =( NAMED_UNIT ( * ) PLANE_ANGLE_UNIT ( ) SI_UNIT ( $, .RADIAN. ) );
#157 = DIRECTION ( 'NONE',  ( 0.0000000000000000000, 1.000000000000000000, 0.0000000000000000000 ) ) ;
#158 = CARTESIAN_POINT ( 'NONE',  ( 0.0000000000000000000, 0.0000000000000000000, 0.0000000000000000000 ) ) ;
#159 = ORIENTED_EDGE ( 'NONE', *, *, #222, .T. ) ;
#160 = CALENDAR_DATE ( 2021, 9, 12 ) ;
#161 = COORDINATED_UNIVERSAL_TIME_OFFSET ( 1, 0, .AHEAD. ) ;
#162 = COORDINATED_UNIVERSAL_TIME_OFFSET ( 1, 0, .AHEAD. ) ;
#163 = AXIS2_PLACEMENT_3D ( 'NONE', #10, #6, #52 ) ;
#164 = APPROVAL_DATE_TIME ( #240, #45 ) ;
#165 = DIRECTION ( 'NONE',  ( -3.491481338843133355E-15, 1.229317185094960748E-16, -1.000000000000000000 ) ) ;
#166 = CARTESIAN_POINT ( 'NONE',  ( 1.326762908760390170E-13, 1.199999999999995515, 37.99999999999999289 ) ) ;
#167 = DIRECTION ( 'NONE',  ( -4.275831445896963861E-31, -1.000000000000000000, -1.224646799147354686E-16 ) ) ;
#168 = DIRECTION ( 'NONE',  ( -4.275831445896963861E-31, -1.000000000000000000, -1.224646799147354686E-16 ) ) ;
#169 = EDGE_CURVE ( 'NONE', #11, #11, #132, .T. ) ;
#170 = FACE_OUTER_BOUND ( 'NONE', #124, .T. ) ;
#171 = CIRCLE ( 'NONE', #77, 0.8651922469877921795 ) ;
#172 = CARTESIAN_POINT ( 'NONE',  ( -1.282749433769088983E-30, 0.8500000000000000888, -3.673940397442063812E-16 ) ) ;
#173 = EDGE_LOOP ( 'NONE', ( #134 ) ) ;
#174 = DATE_AND_TIME ( #55, #16 ) ;
#175 = LOCAL_TIME ( 10, 53, 56.00000000000000000, #24 ) ;
#176 = ORIENTED_EDGE ( 'NONE', *, *, #231, .F. ) ;
#177 = PERSON_AND_ORGANIZATION ( #37, #130 ) ;
#178 = CC_DESIGN_APPROVAL ( #45, ( #241 ) ) ;
#179 = CC_DESIGN_DATE_AND_TIME_ASSIGNMENT ( #70, #120, ( #110 ) ) ;
#180 = PERSON_AND_ORGANIZATION_ROLE ( 'design_owner' ) ;
#181 = MANIFOLD_SOLID_BREP ( 'Corps-Déplacer/Copier1[1]', #201 ) ;
#182 = CIRCLE ( 'NONE', #149, 1.500000000000000000 ) ;
#183 = CC_DESIGN_PERSON_AND_ORGANIZATION_ASSIGNMENT ( #92, #180, ( #97 ) ) ;
#184 = DIRECTION ( 'NONE',  ( -3.491481338843133355E-15, 1.224646799147354686E-16, -1.000000000000000000 ) ) ;
#185 = EDGE_CURVE ( 'NONE', #141, #141, #171, .T. ) ;
#186 =( GEOMETRIC_REPRESENTATION_CONTEXT ( 3 ) GLOBAL_UNCERTAINTY_ASSIGNED_CONTEXT ( ( #121 ) ) GLOBAL_UNIT_ASSIGNED_CONTEXT ( ( #112, #156, #36 ) ) REPRESENTATION_CONTEXT ( 'NONE', 'WORKASPACE' ) );
#187 = PRODUCT_DEFINITION_SHAPE ( 'NONE', 'NONE',  #40 ) ;
#188 = CARTESIAN_POINT ( 'NONE',  ( 1.396592535537253342E-14, 1.124819836996395395E-32, 4.000000000000000000 ) ) ;
#189 = CC_DESIGN_APPROVAL ( #202, ( #40 ) ) ;
#190 = CARTESIAN_POINT ( 'NONE',  ( 1.326762908760390170E-13, 2.197316402903955485E-13, 37.99999999999999289 ) ) ;
#191 = EDGE_LOOP ( 'NONE', ( #50 ) ) ;
#192 = AXIS2_PLACEMENT_3D ( 'NONE', #242, #19, #167 ) ;
#193 = PERSON_AND_ORGANIZATION ( #37, #130 ) ;
#194 = DATE_AND_TIME ( #160, #221 ) ;
#195 = APPROVAL_STATUS ( 'not_yet_approved' ) ;
#196 = FACE_OUTER_BOUND ( 'NONE', #105, .T. ) ;
#197 = APPLICATION_PROTOCOL_DEFINITION ( 'international standard', 'config_control_design', 1994, #204 ) ;
#198 = CC_DESIGN_PERSON_AND_ORGANIZATION_ASSIGNMENT ( #232, #235, ( #241 ) ) ;
#199 = APPROVAL_PERSON_ORGANIZATION ( #177, #202, #12 ) ;
#200 = CC_DESIGN_PERSON_AND_ORGANIZATION_ASSIGNMENT ( #209, #59, ( #241 ) ) ;
#201 = CLOSED_SHELL ( 'NONE', ( #38, #108, #28, #4, #225, #113 ) ) ;
#202 = APPROVAL ( #127, 'UNSPECIFIED' ) ;
#203 = CARTESIAN_POINT ( 'NONE',  ( 1.396592535537253342E-14, -4.336808689942017736E-16, 4.000000000000000000 ) ) ;
#204 = APPLICATION_CONTEXT ( 'configuration controlled 3d designs of mechanical parts and assemblies' ) ;
#205 = CC_DESIGN_APPROVAL ( #62, ( #110 ) ) ;
#206 = EDGE_LOOP ( 'NONE', ( #118 ) ) ;
#207 = FACE_OUTER_BOUND ( 'NONE', #150, .T. ) ;
#208 = LOCAL_TIME ( 10, 53, 56.00000000000000000, #161 ) ;
#209 = PERSON_AND_ORGANIZATION ( #37, #130 ) ;
#210 = AXIS2_PLACEMENT_3D ( 'NONE', #22, #47, #3 ) ;
#211 = FACE_OUTER_BOUND ( 'NONE', #191, .T. ) ;
#212 = EDGE_LOOP ( 'NONE', ( #53 ) ) ;
#213 = CARTESIAN_POINT ( 'NONE',  ( 0.0000000000000000000, 0.0000000000000000000, 0.0000000000000000000 ) ) ;
#214 = DIRECTION ( 'NONE',  ( -3.491481338843133355E-15, 1.229317185094960748E-16, -1.000000000000000000 ) ) ;
#215 = APPROVAL_DATE_TIME ( #174, #202 ) ;
#216 = PRODUCT_RELATED_PRODUCT_CATEGORY ( 'detail', '', ( #97 ) ) ;
#217 = ORIENTED_EDGE ( 'NONE', *, *, #231, .T. ) ;
#218 = CALENDAR_DATE ( 2021, 9, 12 ) ;
#219 = DIRECTION ( 'NONE',  ( 0.0000000000000000000, -1.000000000000000000, 0.0000000000000000000 ) ) ;
#220 = DIRECTION ( 'NONE',  ( 4.292138011278224936E-31, 1.000000000000000000, 1.229317185094960502E-16 ) ) ;
#221 = LOCAL_TIME ( 10, 53, 56.00000000000000000, #88 ) ;
#222 = EDGE_CURVE ( 'NONE', #26, #26, #154, .T. ) ;
#223 = FACE_OUTER_BOUND ( 'NONE', #82, .T. ) ;
#224 = CIRCLE ( 'NONE', #142, 1.200000000000000178 ) ;
#225 = ADVANCED_FACE ( 'NONE', ( #128, #35 ), #91, .T. ) ;
#226 = DIRECTION ( 'NONE',  ( 4.292138011278225812E-31, 1.000000000000000000, 1.229317185094960748E-16 ) ) ;
#227 = EDGE_LOOP ( 'NONE', ( #80 ) ) ;
#228 = FACE_OUTER_BOUND ( 'NONE', #152, .T. ) ;
#229 = CC_DESIGN_SECURITY_CLASSIFICATION ( #110, ( #241 ) ) ;
#230 = CIRCLE ( 'NONE', #66, 0.8500000000000000888 ) ;
#231 = EDGE_CURVE ( 'NONE', #48, #48, #230, .T. ) ;
#232 = PERSON_AND_ORGANIZATION ( #37, #130 ) ;
#233 = DIRECTION ( 'NONE',  ( 4.292138011278225812E-31, 1.000000000000000000, 1.229317185094960748E-16 ) ) ;
#234 = ORIENTED_EDGE ( 'NONE', *, *, #169, .F. ) ;
#235 = PERSON_AND_ORGANIZATION_ROLE ( 'creator' ) ;
#236 = FACE_OUTER_BOUND ( 'NONE', #173, .T. ) ;
#237 = DATE_AND_TIME ( #106, #175 ) ;
#238 = PERSON_AND_ORGANIZATION ( #37, #130 ) ;
#239 = AXIS2_PLACEMENT_3D ( 'NONE', #109, #89, #140 ) ;
#240 = DATE_AND_TIME ( #218, #46 ) ;
#241 = PRODUCT_DEFINITION_FORMATION_WITH_SPECIFIED_SOURCE ( 'ANY', '', #97, .NOT_KNOWN. ) ;
#242 = CARTESIAN_POINT ( 'NONE',  ( 1.396592535537253342E-14, 1.124819836996395395E-32, 4.000000000000000000 ) ) ;
#243 = FACE_OUTER_BOUND ( 'NONE', #20, .T. ) ;
ENDSEC;
END-ISO-10303-21;
