ISO-10303-21;
HEADER;
FILE_DESCRIPTION (( 'STEP AP203' ),
    '1' );
FILE_NAME ('378226.step',
    '2021-12-09T09:53:55',
    ( '' ),
    ( '' ),
    'SwSTEP 2.0',
    'SolidWorks 2019',
    '' );
FILE_SCHEMA (( 'CONFIG_CONTROL_DESIGN' ));
ENDSEC;

DATA;
#1 = DIRECTION ( 'NONE',  ( -3.491481338843133355E-15, 1.229317185094960748E-16, -1.000000000000000000 ) ) ;
#2 = PLANE ( 'NONE',  #49 ) ;
#3 = ADVANCED_BREP_SHAPE_REPRESENTATION ( '378226', ( #8, #158, #194 ), #54 ) ;
#4 = CARTESIAN_POINT ( 'NONE',  ( 9.743632388159878607E-14, -3.430639770791839359E-15, 27.90687230592024548 ) ) ;
#5 = DIRECTION ( 'NONE',  ( -3.491481338843133355E-15, 1.229317185094960748E-16, -1.000000000000000000 ) ) ;
#6 = DIRECTION ( 'NONE',  ( 0.0000000000000000000, 1.000000000000000000, 0.0000000000000000000 ) ) ;
#7 = AXIS2_PLACEMENT_3D ( 'NONE', #41, #188, #187 ) ;
#8 = MANIFOLD_SOLID_BREP ( 'Corps-Déplacer/Copier1[1]', #208 ) ;
#9 = PLANE ( 'NONE',  #134 ) ;
#10 = DIRECTION ( 'NONE',  ( 0.0000000000000000000, 1.000000000000000000, 0.0000000000000000000 ) ) ;
#11 = CARTESIAN_POINT ( 'NONE',  ( 1.326762908760390170E-13, 1.199999999999995515, 37.99999999999999289 ) ) ;
#12 = DIRECTION ( 'NONE',  ( 0.0000000000000000000, 0.0000000000000000000, 1.000000000000000000 ) ) ;
#13 = COORDINATED_UNIVERSAL_TIME_OFFSET ( 1, 0, .AHEAD. ) ;
#14 = CARTESIAN_POINT ( 'NONE',  ( -1.282749433769089158E-30, 0.7999999999999999334, -3.673940397442064305E-16 ) ) ;
#15 = PERSON_AND_ORGANIZATION_ROLE ( 'creator' ) ;
#16 = AXIS2_PLACEMENT_3D ( 'NONE', #145, #97, #133 ) ;
#17 = CC_DESIGN_PERSON_AND_ORGANIZATION_ASSIGNMENT ( #91, #36, ( #219 ) ) ;
#18 = PERSON_AND_ORGANIZATION_ROLE ( 'classification_officer' ) ;
#19 = CC_DESIGN_DATE_AND_TIME_ASSIGNMENT ( #70, #53, ( #125 ) ) ;
#20 = LOCAL_TIME ( 10, 53, 55.00000000000000000, #13 ) ;
#21 = EDGE_LOOP ( 'NONE', ( #220 ) ) ;
#22 = EDGE_LOOP ( 'NONE', ( #144 ) ) ;
#23 = TOROIDAL_SURFACE ( 'NONE', #203, 1.800000000000000044, 1.000000000000000000 ) ;
#24 = FACE_OUTER_BOUND ( 'NONE', #76, .T. ) ;
#25 = ORIENTED_EDGE ( 'NONE', *, *, #35, .T. ) ;
#26 = DIRECTION ( 'NONE',  ( 4.292138011278225812E-31, 1.000000000000000000, 1.229317185094960748E-16 ) ) ;
#27 = APPLICATION_CONTEXT ( 'configuration controlled 3d designs of mechanical parts and assemblies' ) ;
#28 = DIRECTION ( 'NONE',  ( 0.0000000000000000000, 1.000000000000000000, 0.0000000000000000000 ) ) ;
#29 = CARTESIAN_POINT ( 'NONE',  ( 1.396592535537253342E-14, 1.124819836996395395E-32, 4.000000000000000000 ) ) ;
#30 = CIRCLE ( 'NONE', #142, 1.200000000000000178 ) ;
#31 = DIRECTION ( 'NONE',  ( -3.491481338843133355E-15, 1.229317185094960748E-16, -1.000000000000000000 ) ) ;
#32 = LOCAL_TIME ( 10, 53, 55.00000000000000000, #51 ) ;
#33 = APPROVAL_ROLE ( '' ) ;
#34 = DATE_TIME_ROLE ( 'creation_date' ) ;
#35 = EDGE_CURVE ( 'NONE', #64, #64, #103, .T. ) ;
#36 = PERSON_AND_ORGANIZATION_ROLE ( 'design_supplier' ) ;
#37 = AXIS2_PLACEMENT_3D ( 'NONE', #129, #227, #28 ) ;
#38 = ADVANCED_FACE ( 'NONE', ( #112, #184 ), #201, .T. ) ;
#39 = EDGE_CURVE ( 'NONE', #199, #199, #233, .T. ) ;
#40 = EDGE_LOOP ( 'NONE', ( #165 ) ) ;
#41 = CARTESIAN_POINT ( 'NONE',  ( 2.813221263979448749E-14, -9.905082999614108048E-16, 8.057385937258313646 ) ) ;
#42 = ORIENTED_EDGE ( 'NONE', *, *, #141, .F. ) ;
#43 = CIRCLE ( 'NONE', #37, 1.500000000000000000 ) ;
#44 = DIRECTION ( 'NONE',  ( -3.491481338843133355E-15, 1.229317185094960748E-16, -1.000000000000000000 ) ) ;
#45 = FACE_OUTER_BOUND ( 'NONE', #222, .T. ) ;
#46 = ADVANCED_FACE ( 'NONE', ( #225, #209 ), #59, .T. ) ;
#47 = DIRECTION ( 'NONE',  ( 4.292138011278224936E-31, 1.000000000000000000, 1.229317185094960748E-16 ) ) ;
#48 = DIRECTION ( 'NONE',  ( 3.491481338843133355E-15, -1.224646799147354686E-16, 1.000000000000000000 ) ) ;
#49 = AXIS2_PLACEMENT_3D ( 'NONE', #190, #132, #131 ) ;
#50 = APPROVAL_STATUS ( 'not_yet_approved' ) ;
#51 = COORDINATED_UNIVERSAL_TIME_OFFSET ( 1, 0, .AHEAD. ) ;
#52 = VERTEX_POINT ( 'NONE', #135 ) ;
#53 = DATE_TIME_ROLE ( 'classification_date' ) ;
#54 =( GEOMETRIC_REPRESENTATION_CONTEXT ( 3 ) GLOBAL_UNCERTAINTY_ASSIGNED_CONTEXT ( ( #171 ) ) GLOBAL_UNIT_ASSIGNED_CONTEXT ( ( #218, #192, #157 ) ) REPRESENTATION_CONTEXT ( 'NONE', 'WORKASPACE' ) );
#55 = CC_DESIGN_DATE_AND_TIME_ASSIGNMENT ( #88, #34, ( #148 ) ) ;
#56 = CARTESIAN_POINT ( 'NONE',  ( 1.396592535537253342E-14, -4.917268740379842993E-16, 4.000000000000000000 ) ) ;
#57 = CARTESIAN_POINT ( 'NONE',  ( 1.316288464743861212E-13, -4.616918432785527392E-15, 37.69999999999999574 ) ) ;
#58 = ORIENTED_EDGE ( 'NONE', *, *, #124, .T. ) ;
#59 = CYLINDRICAL_SURFACE ( 'NONE', #106, 1.500000000000000000 ) ;
#60 = EDGE_LOOP ( 'NONE', ( #94 ) ) ;
#61 = DIRECTION ( 'NONE',  ( 0.0000000000000000000, -1.000000000000000000, 0.0000000000000000000 ) ) ;
#62 = DIRECTION ( 'NONE',  ( -3.491481338843133355E-15, 1.224646799147354686E-16, -1.000000000000000000 ) ) ;
#63 = CARTESIAN_POINT ( 'NONE',  ( 0.0000000000000000000, 0.0000000000000000000, 0.0000000000000000000 ) ) ;
#64 = VERTEX_POINT ( 'NONE', #136 ) ;
#65 = CALENDAR_DATE ( 2021, 9, 12 ) ;
#66 = CALENDAR_DATE ( 2021, 9, 12 ) ;
#67 = DIRECTION ( 'NONE',  ( 1.000000000000000000, 0.0000000000000000000, 0.0000000000000000000 ) ) ;
#68 = CC_DESIGN_PERSON_AND_ORGANIZATION_ASSIGNMENT ( #178, #15, ( #219 ) ) ;
#69 = AXIS2_PLACEMENT_3D ( 'NONE', #185, #5, #10 ) ;
#70 = DATE_AND_TIME ( #198, #32 ) ;
#71 = VERTEX_POINT ( 'NONE', #138 ) ;
#72 = ORIENTED_EDGE ( 'NONE', *, *, #124, .F. ) ;
#73 = CIRCLE ( 'NONE', #212, 0.7999999999999999334 ) ;
#74 = ADVANCED_FACE ( 'NONE', ( #150 ), #166, .F. ) ;
#75 = EDGE_LOOP ( 'NONE', ( #226 ) ) ;
#76 = EDGE_LOOP ( 'NONE', ( #78 ) ) ;
#77 = DIRECTION ( 'NONE',  ( 4.275831445896963861E-31, 1.000000000000000000, 1.224646799147354686E-16 ) ) ;
#78 = ORIENTED_EDGE ( 'NONE', *, *, #159, .F. ) ;
#79 = CARTESIAN_POINT ( 'NONE',  ( -3.206873584422722458E-31, 1.124819836996396080E-32, -9.184850993605159531E-17 ) ) ;
#80 = CONICAL_SURFACE ( 'NONE', #152, 1.500000000000000000, 0.7853981633974569387 ) ;
#81 = CARTESIAN_POINT ( 'NONE',  ( 1.396592535537253342E-14, -4.336808689942017736E-16, 4.000000000000000000 ) ) ;
#82 = DIRECTION ( 'NONE',  ( 4.292138011278225812E-31, 1.000000000000000000, 1.229317185094960748E-16 ) ) ;
#83 = DESIGN_CONTEXT ( 'detailed design', #27, 'design' ) ;
#84 = CC_DESIGN_PERSON_AND_ORGANIZATION_ASSIGNMENT ( #87, #18, ( #125 ) ) ;
#85 = VERTEX_POINT ( 'NONE', #14 ) ;
#86 = LOCAL_TIME ( 10, 53, 55.00000000000000000, #137 ) ;
#87 = PERSON_AND_ORGANIZATION ( #202, #162 ) ;
#88 = DATE_AND_TIME ( #65, #86 ) ;
#89 = DATE_AND_TIME ( #66, #20 ) ;
#90 = VERTEX_POINT ( 'NONE', #217 ) ;
#91 = PERSON_AND_ORGANIZATION ( #202, #162 ) ;
#92 = AXIS2_PLACEMENT_3D ( 'NONE', #56, #1, #206 ) ;
#93 = APPROVAL_PERSON_ORGANIZATION ( #173, #181, #176 ) ;
#94 = ORIENTED_EDGE ( 'NONE', *, *, #139, .T. ) ;
#95 = EDGE_LOOP ( 'NONE', ( #224 ) ) ;
#96 = FACE_OUTER_BOUND ( 'NONE', #160, .T. ) ;
#97 = DIRECTION ( 'NONE',  ( -3.491481338843133355E-15, 1.224646799147354686E-16, -1.000000000000000000 ) ) ;
#98 = DIRECTION ( 'NONE',  ( 4.275831445896963861E-31, 1.000000000000000000, 1.224646799147354686E-16 ) ) ;
#99 = APPROVAL_PERSON_ORGANIZATION ( #215, #118, #120 ) ;
#100 = ADVANCED_FACE ( 'NONE', ( #207 ), #182, .T. ) ;
#101 = DIRECTION ( 'NONE',  ( 0.0000000000000000000, 1.000000000000000000, 0.0000000000000000000 ) ) ;
#102 = PERSON_AND_ORGANIZATION ( #202, #162 ) ;
#103 = CIRCLE ( 'NONE', #92, 0.8000000000000002665 ) ;
#104 = CALENDAR_DATE ( 2021, 9, 12 ) ;
#105 = APPROVAL_DATE_TIME ( #177, #118 ) ;
#106 = AXIS2_PLACEMENT_3D ( 'NONE', #63, #62, #77 ) ;
#107 = APPLICATION_CONTEXT ( 'configuration controlled 3d designs of mechanical parts and assemblies' ) ;
#108 = PRODUCT_RELATED_PRODUCT_CATEGORY ( 'detail', '', ( #214 ) ) ;
#109 = EDGE_LOOP ( 'NONE', ( #242 ) ) ;
#110 = CARTESIAN_POINT ( 'NONE',  ( -1.626120474671347153E-30, 5.725414660845978362E-32, -4.657394145518033101E-16 ) ) ;
#111 = LOCAL_TIME ( 10, 53, 55.00000000000000000, #195 ) ;
#112 = FACE_OUTER_BOUND ( 'NONE', #22, .T. ) ;
#113 = FACE_OUTER_BOUND ( 'NONE', #126, .T. ) ;
#114 = DIRECTION ( 'NONE',  ( -3.491481338843133355E-15, 1.224646799147354686E-16, -1.000000000000000000 ) ) ;
#115 = DIRECTION ( 'NONE',  ( -3.491481338843133355E-15, 1.224646799147354686E-16, -1.000000000000000000 ) ) ;
#116 = DIRECTION ( 'NONE',  ( -3.491481338843133355E-15, 1.229317185094960748E-16, -1.000000000000000000 ) ) ;
#117 = DATE_AND_TIME ( #121, #183 ) ;
#118 = APPROVAL ( #50, 'UNSPECIFIED' ) ;
#119 = APPLICATION_PROTOCOL_DEFINITION ( 'international standard', 'config_control_design', 1994, #107 ) ;
#120 = APPROVAL_ROLE ( '' ) ;
#121 = CALENDAR_DATE ( 2021, 9, 12 ) ;
#122 = MECHANICAL_CONTEXT ( 'NONE', #107, 'mechanical' ) ;
#123 = AXIS2_PLACEMENT_3D ( 'NONE', #229, #31, #26 ) ;
#124 = EDGE_CURVE ( 'NONE', #71, #71, #216, .T. ) ;
#125 = SECURITY_CLASSIFICATION ( '', '', #174 ) ;
#126 = EDGE_LOOP ( 'NONE', ( #72 ) ) ;
#127 = CARTESIAN_POINT ( 'NONE',  ( 1.457221472722074060E-14, -5.130737429346224123E-16, 4.173648177666930970 ) ) ;
#128 = EDGE_LOOP ( 'NONE', ( #25 ) ) ;
#129 = CARTESIAN_POINT ( 'NONE',  ( 1.316288464743861212E-13, -4.616918432785527392E-15, 37.69999999999999574 ) ) ;
#130 = CIRCLE ( 'NONE', #169, 0.8151922469877920241 ) ;
#131 = DIRECTION ( 'NONE',  ( -4.275831445896963861E-31, -1.000000000000000000, -1.224646799147354686E-16 ) ) ;
#132 = DIRECTION ( 'NONE',  ( 3.491481338843133355E-15, -1.224646799147354686E-16, 1.000000000000000000 ) ) ;
#133 = DIRECTION ( 'NONE',  ( 4.275831445896963861E-31, 1.000000000000000000, 1.224646799147354686E-16 ) ) ;
#134 = AXIS2_PLACEMENT_3D ( 'NONE', #29, #48, #168 ) ;
#135 = CARTESIAN_POINT ( 'NONE',  ( 1.457221472722074060E-14, 0.8151922469877914690, 4.173648177666930970 ) ) ;
#136 = CARTESIAN_POINT ( 'NONE',  ( 1.396592535537253342E-14, 0.7999999999999997113, 4.000000000000000000 ) ) ;
#137 = COORDINATED_UNIVERSAL_TIME_OFFSET ( 1, 0, .AHEAD. ) ;
#138 = CARTESIAN_POINT ( 'NONE',  ( 1.396592535537253342E-14, 0.7999999999999997113, 4.000000000000000000 ) ) ;
#139 = EDGE_CURVE ( 'NONE', #236, #236, #30, .T. ) ;
#140 = APPROVAL_STATUS ( 'not_yet_approved' ) ;
#141 = EDGE_CURVE ( 'NONE', #90, #90, #43, .T. ) ;
#142 = AXIS2_PLACEMENT_3D ( 'NONE', #147, #114, #101 ) ;
#143 = EDGE_LOOP ( 'NONE', ( #42 ) ) ;
#144 = ORIENTED_EDGE ( 'NONE', *, *, #39, .T. ) ;
#145 = CARTESIAN_POINT ( 'NONE',  ( 1.326762908760390170E-13, 2.197316402903955485E-13, 37.99999999999999289 ) ) ;
#146 = EDGE_LOOP ( 'NONE', ( #204 ) ) ;
#147 = CARTESIAN_POINT ( 'NONE',  ( 1.326762908760390170E-13, -4.653657836759946674E-15, 37.99999999999999289 ) ) ;
#148 = PRODUCT_DEFINITION ( 'UNKNOWN', '', #219, #83 ) ;
#149 = DIRECTION ( 'NONE',  ( -3.491481338843133355E-15, 1.229317185094960748E-16, -1.000000000000000000 ) ) ;
#150 = FACE_OUTER_BOUND ( 'NONE', #21, .T. ) ;
#151 = PERSON_AND_ORGANIZATION_ROLE ( 'design_owner' ) ;
#152 = AXIS2_PLACEMENT_3D ( 'NONE', #57, #115, #205 ) ;
#153 = APPROVAL_STATUS ( 'not_yet_approved' ) ;
#154 = APPROVAL_DATE_TIME ( #117, #181 ) ;
#155 = PERSON_AND_ORGANIZATION ( #202, #162 ) ;
#156 = CC_DESIGN_SECURITY_CLASSIFICATION ( #125, ( #219 ) ) ;
#157 =( NAMED_UNIT ( * ) SI_UNIT ( $, .STERADIAN. ) SOLID_ANGLE_UNIT ( ) );
#158 = MANIFOLD_SOLID_BREP ( 'Corps-Déplacer/Copier1[2]', #240 ) ;
#159 = EDGE_CURVE ( 'NONE', #85, #85, #73, .T. ) ;
#160 = EDGE_LOOP ( 'NONE', ( #163 ) ) ;
#161 = ADVANCED_FACE ( 'NONE', ( #24, #45 ), #230, .T. ) ;
#162 = ORGANIZATION ( 'UNSPECIFIED', 'UNSPECIFIED', '' ) ;
#163 = ORIENTED_EDGE ( 'NONE', *, *, #35, .F. ) ;
#164 = FACE_OUTER_BOUND ( 'NONE', #128, .T. ) ;
#165 = ORIENTED_EDGE ( 'NONE', *, *, #159, .T. ) ;
#166 = PLANE ( 'NONE',  #16 ) ;
#167 = ADVANCED_FACE ( 'NONE', ( #96, #211 ), #23, .F. ) ;
#168 = DIRECTION ( 'NONE',  ( -4.275831445896963861E-31, -1.000000000000000000, -1.224646799147354686E-16 ) ) ;
#169 = AXIS2_PLACEMENT_3D ( 'NONE', #127, #116, #6 ) ;
#170 = DIRECTION ( 'NONE',  ( 3.491481338843133355E-15, -1.229317185094960748E-16, 1.000000000000000000 ) ) ;
#171 = UNCERTAINTY_MEASURE_WITH_UNIT (LENGTH_MEASURE( 1.000000000000000082E-05 ), #218, 'distance_accuracy_value', 'NONE');
#172 = DIRECTION ( 'NONE',  ( -3.491481338843133355E-15, 1.224646799147354686E-16, -1.000000000000000000 ) ) ;
#173 = PERSON_AND_ORGANIZATION ( #202, #162 ) ;
#174 = SECURITY_CLASSIFICATION_LEVEL ( 'unclassified' ) ;
#175 = CC_DESIGN_APPROVAL ( #118, ( #219 ) ) ;
#176 = APPROVAL_ROLE ( '' ) ;
#177 = DATE_AND_TIME ( #104, #111 ) ;
#178 = PERSON_AND_ORGANIZATION ( #202, #162 ) ;
#179 = SHAPE_DEFINITION_REPRESENTATION ( #239, #3 ) ;
#180 = CC_DESIGN_APPROVAL ( #221, ( #125 ) ) ;
#181 = APPROVAL ( #153, 'UNSPECIFIED' ) ;
#182 = PLANE ( 'NONE',  #243 ) ;
#183 = LOCAL_TIME ( 10, 53, 55.00000000000000000, #232 ) ;
#184 = FACE_BOUND ( 'NONE', #109, .T. ) ;
#185 = CARTESIAN_POINT ( 'NONE',  ( 1.396592535537253342E-14, -4.917268740379842993E-16, 4.000000000000000000 ) ) ;
#186 = ADVANCED_FACE ( 'NONE', ( #164 ), #9, .F. ) ;
#187 = DIRECTION ( 'NONE',  ( 0.0000000000000000000, -1.000000000000000000, 0.0000000000000000000 ) ) ;
#188 = DIRECTION ( 'NONE',  ( -3.491481338843133355E-15, 1.229317185094960748E-16, -1.000000000000000000 ) ) ;
#189 = AXIS2_PLACEMENT_3D ( 'NONE', #4, #170, #61 ) ;
#190 = CARTESIAN_POINT ( 'NONE',  ( 1.396592535537253342E-14, 1.124819836996395395E-32, 4.000000000000000000 ) ) ;
#191 = EDGE_CURVE ( 'NONE', #52, #52, #130, .T. ) ;
#192 =( NAMED_UNIT ( * ) PLANE_ANGLE_UNIT ( ) SI_UNIT ( $, .RADIAN. ) );
#193 = CARTESIAN_POINT ( 'NONE',  ( 0.0000000000000000000, 0.0000000000000000000, 0.0000000000000000000 ) ) ;
#194 = AXIS2_PLACEMENT_3D ( 'NONE', #193, #12, #67 ) ;
#195 = COORDINATED_UNIVERSAL_TIME_OFFSET ( 1, 0, .AHEAD. ) ;
#196 = CC_DESIGN_PERSON_AND_ORGANIZATION_ASSIGNMENT ( #197, #234, ( #148 ) ) ;
#197 = PERSON_AND_ORGANIZATION ( #202, #162 ) ;
#198 = CALENDAR_DATE ( 2021, 9, 12 ) ;
#199 = VERTEX_POINT ( 'NONE', #213 ) ;
#200 = APPROVAL_DATE_TIME ( #89, #221 ) ;
#201 = CONICAL_SURFACE ( 'NONE', #189, 4.999999999999999112, 0.1745329251994333364 ) ;
#202 = PERSON ( 'UNSPECIFIED', 'UNSPECIFIED', 'UNSPECIFIED', ('UNSPECIFIED'), ('UNSPECIFIED'), ('UNSPECIFIED') ) ;
#203 = AXIS2_PLACEMENT_3D ( 'NONE', #81, #149, #82 ) ;
#204 = ORIENTED_EDGE ( 'NONE', *, *, #39, .F. ) ;
#205 = DIRECTION ( 'NONE',  ( 0.0000000000000000000, 1.000000000000000000, 0.0000000000000000000 ) ) ;
#206 = DIRECTION ( 'NONE',  ( 0.0000000000000000000, 1.000000000000000000, 0.0000000000000000000 ) ) ;
#207 = FACE_OUTER_BOUND ( 'NONE', #40, .T. ) ;
#208 = CLOSED_SHELL ( 'NONE', ( #46, #235, #74, #167, #38, #186 ) ) ;
#209 = FACE_OUTER_BOUND ( 'NONE', #95, .T. ) ;
#210 = FACE_BOUND ( 'NONE', #60, .T. ) ;
#211 = FACE_OUTER_BOUND ( 'NONE', #75, .T. ) ;
#212 = AXIS2_PLACEMENT_3D ( 'NONE', #110, #44, #47 ) ;
#213 = CARTESIAN_POINT ( 'NONE',  ( 2.813221263979448749E-14, -1.500000000000001110, 8.057385937258313646 ) ) ;
#214 = PRODUCT ( '378226', '378226', '', ( #122 ) ) ;
#215 = PERSON_AND_ORGANIZATION ( #202, #162 ) ;
#216 = CIRCLE ( 'NONE', #69, 0.8000000000000002665 ) ;
#217 = CARTESIAN_POINT ( 'NONE',  ( 1.316288464743861212E-13, 1.499999999999995559, 37.69999999999999574 ) ) ;
#218 =( LENGTH_UNIT ( ) NAMED_UNIT ( * ) SI_UNIT ( .MILLI., .METRE. ) );
#219 = PRODUCT_DEFINITION_FORMATION_WITH_SPECIFIED_SOURCE ( 'ANY', '', #214, .NOT_KNOWN. ) ;
#220 = ORIENTED_EDGE ( 'NONE', *, *, #139, .F. ) ;
#221 = APPROVAL ( #140, 'UNSPECIFIED' ) ;
#222 = EDGE_LOOP ( 'NONE', ( #58 ) ) ;
#223 = FACE_OUTER_BOUND ( 'NONE', #143, .T. ) ;
#224 = ORIENTED_EDGE ( 'NONE', *, *, #141, .T. ) ;
#225 = FACE_OUTER_BOUND ( 'NONE', #146, .T. ) ;
#226 = ORIENTED_EDGE ( 'NONE', *, *, #191, .T. ) ;
#227 = DIRECTION ( 'NONE',  ( -3.491481338843133355E-15, 1.224646799147354686E-16, -1.000000000000000000 ) ) ;
#228 = APPROVAL_PERSON_ORGANIZATION ( #155, #221, #33 ) ;
#229 = CARTESIAN_POINT ( 'NONE',  ( 0.0000000000000000000, 0.0000000000000000000, 0.0000000000000000000 ) ) ;
#230 = CYLINDRICAL_SURFACE ( 'NONE', #123, 0.8000000000000001554 ) ;
#231 = ADVANCED_FACE ( 'NONE', ( #113 ), #2, .T. ) ;
#232 = COORDINATED_UNIVERSAL_TIME_OFFSET ( 1, 0, .AHEAD. ) ;
#233 = CIRCLE ( 'NONE', #7, 1.500000000000000000 ) ;
#234 = PERSON_AND_ORGANIZATION_ROLE ( 'creator' ) ;
#235 = ADVANCED_FACE ( 'NONE', ( #210, #223 ), #80, .T. ) ;
#236 = VERTEX_POINT ( 'NONE', #11 ) ;
#237 = CC_DESIGN_APPROVAL ( #181, ( #148 ) ) ;
#238 = APPLICATION_PROTOCOL_DEFINITION ( 'international standard', 'config_control_design', 1994, #27 ) ;
#239 = PRODUCT_DEFINITION_SHAPE ( 'NONE', 'NONE',  #148 ) ;
#240 = CLOSED_SHELL ( 'NONE', ( #231, #161, #100 ) ) ;
#241 = CC_DESIGN_PERSON_AND_ORGANIZATION_ASSIGNMENT ( #102, #151, ( #214 ) ) ;
#242 = ORIENTED_EDGE ( 'NONE', *, *, #191, .F. ) ;
#243 = AXIS2_PLACEMENT_3D ( 'NONE', #79, #172, #98 ) ;
ENDSEC;
END-ISO-10303-21;
