ISO-10303-21;
HEADER;
FILE_DESCRIPTION (( 'STEP AP203' ),
    '1' );
FILE_NAME ('378225.step',
    '2021-12-09T09:53:55',
    ( '' ),
    ( '' ),
    'SwSTEP 2.0',
    'SolidWorks 2019',
    '' );
FILE_SCHEMA (( 'CONFIG_CONTROL_DESIGN' ));
ENDSEC;

DATA;
#1 = ORIENTED_EDGE ( 'NONE', *, *, #45, .F. ) ;
#2 = CARTESIAN_POINT ( 'NONE',  ( 1.326762908760390170E-13, 1.199999999999995515, 37.99999999999999289 ) ) ;
#3 = ORGANIZATION ( 'UNSPECIFIED', 'UNSPECIFIED', '' ) ;
#4 = FACE_OUTER_BOUND ( 'NONE', #173, .T. ) ;
#5 = APPROVAL_STATUS ( 'not_yet_approved' ) ;
#6 = CARTESIAN_POINT ( 'NONE',  ( 1.316288464743861212E-13, -4.616918432785527392E-15, 37.69999999999999574 ) ) ;
#7 = AXIS2_PLACEMENT_3D ( 'NONE', #191, #22, #35 ) ;
#8 = DIRECTION ( 'NONE',  ( -3.491481338843133355E-15, 1.229317185094960748E-16, -1.000000000000000000 ) ) ;
#9 = MECHANICAL_CONTEXT ( 'NONE', #176, 'mechanical' ) ;
#10 = PERSON_AND_ORGANIZATION ( #16, #3 ) ;
#11 = CC_DESIGN_APPROVAL ( #104, ( #77 ) ) ;
#12 = TOROIDAL_SURFACE ( 'NONE', #78, 1.750000000000000000, 1.000000000000000222 ) ;
#13 = DIRECTION ( 'NONE',  ( -3.491481338843133355E-15, 1.224646799147354686E-16, -1.000000000000000000 ) ) ;
#14 = CARTESIAN_POINT ( 'NONE',  ( 1.457221472722074060E-14, 0.7651922469877914246, 4.173648177666930970 ) ) ;
#15 = APPROVAL_ROLE ( '' ) ;
#16 = PERSON ( 'UNSPECIFIED', 'UNSPECIFIED', 'UNSPECIFIED', ('UNSPECIFIED'), ('UNSPECIFIED'), ('UNSPECIFIED') ) ;
#17 = DIRECTION ( 'NONE',  ( -3.491481338843133355E-15, 1.224646799147354686E-16, -1.000000000000000000 ) ) ;
#18 = DATE_AND_TIME ( #135, #164 ) ;
#19 = APPROVAL_STATUS ( 'not_yet_approved' ) ;
#20 = ORIENTED_EDGE ( 'NONE', *, *, #51, .T. ) ;
#21 = DATE_AND_TIME ( #139, #198 ) ;
#22 = DIRECTION ( 'NONE',  ( 0.0000000000000000000, 0.0000000000000000000, 1.000000000000000000 ) ) ;
#23 = AXIS2_PLACEMENT_3D ( 'NONE', #184, #13, #94 ) ;
#24 = EDGE_LOOP ( 'NONE', ( #20 ) ) ;
#25 = CARTESIAN_POINT ( 'NONE',  ( 1.396592535537253342E-14, 1.124819836996395395E-32, 4.000000000000000000 ) ) ;
#26 = CARTESIAN_POINT ( 'NONE',  ( -1.282749433769089158E-30, 0.7500000000000002220, -3.673940397442064305E-16 ) ) ;
#27 = DIRECTION ( 'NONE',  ( 3.491481338843133355E-15, -1.224646799147354686E-16, 1.000000000000000000 ) ) ;
#28 = MANIFOLD_SOLID_BREP ( 'Corps-Déplacer/Copier1[2]', #238 ) ;
#29 = CYLINDRICAL_SURFACE ( 'NONE', #185, 1.500000000000000000 ) ;
#30 = CC_DESIGN_PERSON_AND_ORGANIZATION_ASSIGNMENT ( #41, #154, ( #77 ) ) ;
#31 = CIRCLE ( 'NONE', #100, 1.500000000000000000 ) ;
#32 = PLANE ( 'NONE',  #156 ) ;
#33 = FACE_OUTER_BOUND ( 'NONE', #127, .T. ) ;
#34 = PLANE ( 'NONE',  #211 ) ;
#35 = DIRECTION ( 'NONE',  ( 1.000000000000000000, 0.0000000000000000000, 0.0000000000000000000 ) ) ;
#36 = APPROVAL ( #203, 'UNSPECIFIED' ) ;
#37 = PERSON_AND_ORGANIZATION_ROLE ( 'creator' ) ;
#38 = AXIS2_PLACEMENT_3D ( 'NONE', #53, #116, #40 ) ;
#39 = DIRECTION ( 'NONE',  ( -3.491481338843133355E-15, 1.229317185094960748E-16, -1.000000000000000000 ) ) ;
#40 = DIRECTION ( 'NONE',  ( 0.0000000000000000000, -1.000000000000000000, 0.0000000000000000000 ) ) ;
#41 = PERSON_AND_ORGANIZATION ( #16, #3 ) ;
#42 = DIRECTION ( 'NONE',  ( 0.0000000000000000000, 1.000000000000000000, 0.0000000000000000000 ) ) ;
#43 = ORIENTED_EDGE ( 'NONE', *, *, #96, .T. ) ;
#44 = CARTESIAN_POINT ( 'NONE',  ( -1.604659784614956357E-30, 5.649853623767488773E-32, -4.595928286263285236E-16 ) ) ;
#45 = EDGE_CURVE ( 'NONE', #188, #188, #199, .T. ) ;
#46 = AXIS2_PLACEMENT_3D ( 'NONE', #125, #232, #212 ) ;
#47 = CC_DESIGN_SECURITY_CLASSIFICATION ( #92, ( #119 ) ) ;
#48 = CC_DESIGN_DATE_AND_TIME_ASSIGNMENT ( #222, #187, ( #92 ) ) ;
#49 = FACE_OUTER_BOUND ( 'NONE', #55, .T. ) ;
#50 = FACE_OUTER_BOUND ( 'NONE', #190, .T. ) ;
#51 = EDGE_CURVE ( 'NONE', #170, #170, #132, .T. ) ;
#52 = ADVANCED_FACE ( 'NONE', ( #58 ), #112, .F. ) ;
#53 = CARTESIAN_POINT ( 'NONE',  ( 9.842638261362454102E-14, -3.465498791803701891E-15, 28.19043639690112713 ) ) ;
#54 = PERSON_AND_ORGANIZATION ( #16, #3 ) ;
#55 = EDGE_LOOP ( 'NONE', ( #63 ) ) ;
#56 = PERSON_AND_ORGANIZATION ( #16, #3 ) ;
#57 = APPROVAL_PERSON_ORGANIZATION ( #68, #104, #233 ) ;
#58 = FACE_OUTER_BOUND ( 'NONE', #59, .T. ) ;
#59 = EDGE_LOOP ( 'NONE', ( #84 ) ) ;
#60 = EDGE_LOOP ( 'NONE', ( #1 ) ) ;
#61 = VERTEX_POINT ( 'NONE', #103 ) ;
#62 = EDGE_CURVE ( 'NONE', #225, #225, #180, .T. ) ;
#63 = ORIENTED_EDGE ( 'NONE', *, *, #186, .F. ) ;
#64 = ADVANCED_FACE ( 'NONE', ( #107, #178 ), #124, .T. ) ;
#65 = ORIENTED_EDGE ( 'NONE', *, *, #123, .F. ) ;
#66 = EDGE_CURVE ( 'NONE', #231, #231, #87, .T. ) ;
#67 = CARTESIAN_POINT ( 'NONE',  ( 1.396592535537253342E-14, -4.917268740379842993E-16, 4.000000000000000000 ) ) ;
#68 = PERSON_AND_ORGANIZATION ( #16, #3 ) ;
#69 = APPROVAL_PERSON_ORGANIZATION ( #54, #36, #189 ) ;
#70 = CALENDAR_DATE ( 2021, 9, 12 ) ;
#71 = LOCAL_TIME ( 10, 53, 55.00000000000000000, #218 ) ;
#72 = DIRECTION ( 'NONE',  ( -4.275831445896963861E-31, -1.000000000000000000, -1.224646799147354686E-16 ) ) ;
#73 = COORDINATED_UNIVERSAL_TIME_OFFSET ( 1, 0, .AHEAD. ) ;
#74 = PERSON_AND_ORGANIZATION_ROLE ( 'classification_officer' ) ;
#75 = CARTESIAN_POINT ( 'NONE',  ( 2.912227137182026769E-14, -1.025367320973274521E-15, 8.340950028239198843 ) ) ;
#76 = PERSON_AND_ORGANIZATION ( #16, #3 ) ;
#77 = PRODUCT_DEFINITION ( 'UNKNOWN', '', #119, #209 ) ;
#78 = AXIS2_PLACEMENT_3D ( 'NONE', #113, #202, #147 ) ;
#79 = CARTESIAN_POINT ( 'NONE',  ( 1.316288464743861212E-13, 1.499999999999995559, 37.69999999999999574 ) ) ;
#80 = COORDINATED_UNIVERSAL_TIME_OFFSET ( 1, 0, .AHEAD. ) ;
#81 = DIRECTION ( 'NONE',  ( 0.0000000000000000000, 1.000000000000000000, 0.0000000000000000000 ) ) ;
#82 = EDGE_LOOP ( 'NONE', ( #197 ) ) ;
#83 = CONICAL_SURFACE ( 'NONE', #38, 4.999999999999999112, 0.1745329251994333919 ) ;
#84 = ORIENTED_EDGE ( 'NONE', *, *, #66, .T. ) ;
#85 = CC_DESIGN_PERSON_AND_ORGANIZATION_ASSIGNMENT ( #10, #74, ( #92 ) ) ;
#86 = EDGE_LOOP ( 'NONE', ( #241 ) ) ;
#87 = CIRCLE ( 'NONE', #46, 0.7500000000000001110 ) ;
#88 = ORIENTED_EDGE ( 'NONE', *, *, #123, .T. ) ;
#89 = CC_DESIGN_PERSON_AND_ORGANIZATION_ASSIGNMENT ( #98, #167, ( #119 ) ) ;
#90 = AXIS2_PLACEMENT_3D ( 'NONE', #179, #200, #72 ) ;
#91 = DIRECTION ( 'NONE',  ( 4.292138011278225812E-31, 1.000000000000000000, 1.229317185094960995E-16 ) ) ;
#92 = SECURITY_CLASSIFICATION ( '', '', #121 ) ;
#93 = AXIS2_PLACEMENT_3D ( 'NONE', #44, #110, #196 ) ;
#94 = DIRECTION ( 'NONE',  ( 0.0000000000000000000, 1.000000000000000000, 0.0000000000000000000 ) ) ;
#95 = APPLICATION_CONTEXT ( 'configuration controlled 3d designs of mechanical parts and assemblies' ) ;
#96 = EDGE_CURVE ( 'NONE', #145, #145, #177, .T. ) ;
#97 = APPROVAL_DATE_TIME ( #18, #36 ) ;
#98 = PERSON_AND_ORGANIZATION ( #16, #3 ) ;
#99 = DIRECTION ( 'NONE',  ( 0.0000000000000000000, 1.000000000000000000, 0.0000000000000000000 ) ) ;
#100 = AXIS2_PLACEMENT_3D ( 'NONE', #75, #8, #221 ) ;
#101 = DIRECTION ( 'NONE',  ( -3.491481338843133355E-15, 1.224646799147354686E-16, -1.000000000000000000 ) ) ;
#102 = UNCERTAINTY_MEASURE_WITH_UNIT (LENGTH_MEASURE( 1.000000000000000082E-05 ), #106, 'distance_accuracy_value', 'NONE');
#103 = CARTESIAN_POINT ( 'NONE',  ( 2.912227137182026769E-14, -1.500000000000001110, 8.340950028239198843 ) ) ;
#104 = APPROVAL ( #5, 'UNSPECIFIED' ) ;
#105 = ORIENTED_EDGE ( 'NONE', *, *, #51, .F. ) ;
#106 =( LENGTH_UNIT ( ) NAMED_UNIT ( * ) SI_UNIT ( .MILLI., .METRE. ) );
#107 = FACE_BOUND ( 'NONE', #230, .T. ) ;
#108 = APPLICATION_PROTOCOL_DEFINITION ( 'international standard', 'config_control_design', 1994, #95 ) ;
#109 = EDGE_LOOP ( 'NONE', ( #43 ) ) ;
#110 = DIRECTION ( 'NONE',  ( -3.491481338843133355E-15, 1.229317185094960748E-16, -1.000000000000000000 ) ) ;
#111 = CC_DESIGN_PERSON_AND_ORGANIZATION_ASSIGNMENT ( #208, #37, ( #119 ) ) ;
#112 = PLANE ( 'NONE',  #226 ) ;
#113 = CARTESIAN_POINT ( 'NONE',  ( 1.396592535537253342E-14, -4.336808689942017736E-16, 4.000000000000000000 ) ) ;
#114 = CARTESIAN_POINT ( 'NONE',  ( -3.206873584422722458E-31, 1.124819836996396080E-32, -9.184850993605159531E-17 ) ) ;
#115 = FACE_OUTER_BOUND ( 'NONE', #82, .T. ) ;
#116 = DIRECTION ( 'NONE',  ( 3.491481338843133355E-15, -1.229317185094960748E-16, 1.000000000000000000 ) ) ;
#117 = ADVANCED_FACE ( 'NONE', ( #4 ), #160, .T. ) ;
#118 = DIRECTION ( 'NONE',  ( 4.275831445896963861E-31, 1.000000000000000000, 1.224646799147354686E-16 ) ) ;
#119 = PRODUCT_DEFINITION_FORMATION_WITH_SPECIFIED_SOURCE ( 'ANY', '', #142, .NOT_KNOWN. ) ;
#120 = CC_DESIGN_DATE_AND_TIME_ASSIGNMENT ( #21, #223, ( #77 ) ) ;
#121 = SECURITY_CLASSIFICATION_LEVEL ( 'unclassified' ) ;
#122 = CARTESIAN_POINT ( 'NONE',  ( 1.396592535537253342E-14, 0.7499999999999995559, 4.000000000000000000 ) ) ;
#123 = EDGE_CURVE ( 'NONE', #61, #61, #31, .T. ) ;
#124 = CONICAL_SURFACE ( 'NONE', #195, 1.500000000000000000, 0.7853981633974569387 ) ;
#125 = CARTESIAN_POINT ( 'NONE',  ( 1.396592535537253342E-14, -4.917268740379842993E-16, 4.000000000000000000 ) ) ;
#126 = ADVANCED_BREP_SHAPE_REPRESENTATION ( '378225', ( #194, #28, #7 ), #136 ) ;
#127 = EDGE_LOOP ( 'NONE', ( #143 ) ) ;
#128 = VERTEX_POINT ( 'NONE', #2 ) ;
#129 = DIRECTION ( 'NONE',  ( -3.491481338843133355E-15, 1.229317185094960748E-16, -1.000000000000000000 ) ) ;
#130 = ADVANCED_FACE ( 'NONE', ( #168, #134 ), #12, .F. ) ;
#131 = CC_DESIGN_APPROVAL ( #36, ( #92 ) ) ;
#132 = CIRCLE ( 'NONE', #159, 1.500000000000000000 ) ;
#133 = DIRECTION ( 'NONE',  ( 4.275831445896963861E-31, 1.000000000000000000, 1.224646799147354686E-16 ) ) ;
#134 = FACE_OUTER_BOUND ( 'NONE', #138, .T. ) ;
#135 = CALENDAR_DATE ( 2021, 9, 12 ) ;
#136 =( GEOMETRIC_REPRESENTATION_CONTEXT ( 3 ) GLOBAL_UNCERTAINTY_ASSIGNED_CONTEXT ( ( #102 ) ) GLOBAL_UNIT_ASSIGNED_CONTEXT ( ( #106, #193, #201 ) ) REPRESENTATION_CONTEXT ( 'NONE', 'WORKASPACE' ) );
#137 = DATE_AND_TIME ( #224, #242 ) ;
#138 = EDGE_LOOP ( 'NONE', ( #144 ) ) ;
#139 = CALENDAR_DATE ( 2021, 9, 12 ) ;
#140 = APPROVAL_DATE_TIME ( #137, #213 ) ;
#141 = CLOSED_SHELL ( 'NONE', ( #171, #64, #182, #130, #217, #52 ) ) ;
#142 = PRODUCT ( '378225', '378225', '', ( #9 ) ) ;
#143 = ORIENTED_EDGE ( 'NONE', *, *, #96, .F. ) ;
#144 = ORIENTED_EDGE ( 'NONE', *, *, #45, .T. ) ;
#145 = VERTEX_POINT ( 'NONE', #26 ) ;
#146 = FACE_OUTER_BOUND ( 'NONE', #109, .T. ) ;
#147 = DIRECTION ( 'NONE',  ( 4.292138011278225812E-31, 1.000000000000000000, 1.229317185094960748E-16 ) ) ;
#148 = FACE_BOUND ( 'NONE', #60, .T. ) ;
#149 = AXIS2_PLACEMENT_3D ( 'NONE', #67, #129, #157 ) ;
#150 = CARTESIAN_POINT ( 'NONE',  ( 0.0000000000000000000, 0.0000000000000000000, 0.0000000000000000000 ) ) ;
#151 = SHAPE_DEFINITION_REPRESENTATION ( #153, #126 ) ;
#152 = APPROVAL_DATE_TIME ( #228, #104 ) ;
#153 = PRODUCT_DEFINITION_SHAPE ( 'NONE', 'NONE',  #77 ) ;
#154 = PERSON_AND_ORGANIZATION_ROLE ( 'creator' ) ;
#155 = APPROVAL_PERSON_ORGANIZATION ( #76, #213, #15 ) ;
#156 = AXIS2_PLACEMENT_3D ( 'NONE', #235, #181, #118 ) ;
#157 = DIRECTION ( 'NONE',  ( 0.0000000000000000000, 1.000000000000000000, 0.0000000000000000000 ) ) ;
#158 = EDGE_LOOP ( 'NONE', ( #88 ) ) ;
#159 = AXIS2_PLACEMENT_3D ( 'NONE', #172, #17, #81 ) ;
#160 = PLANE ( 'NONE',  #90 ) ;
#161 = PERSON_AND_ORGANIZATION_ROLE ( 'design_owner' ) ;
#162 = DIRECTION ( 'NONE',  ( -3.491481338843133355E-15, 1.224646799147354686E-16, -1.000000000000000000 ) ) ;
#163 = FACE_OUTER_BOUND ( 'NONE', #158, .T. ) ;
#164 = LOCAL_TIME ( 10, 53, 55.00000000000000000, #169 ) ;
#165 = DIRECTION ( 'NONE',  ( -3.491481338843133355E-15, 1.229317185094960748E-16, -1.000000000000000000 ) ) ;
#166 = CALENDAR_DATE ( 2021, 9, 12 ) ;
#167 = PERSON_AND_ORGANIZATION_ROLE ( 'design_supplier' ) ;
#168 = FACE_OUTER_BOUND ( 'NONE', #86, .T. ) ;
#169 = COORDINATED_UNIVERSAL_TIME_OFFSET ( 1, 0, .AHEAD. ) ;
#170 = VERTEX_POINT ( 'NONE', #79 ) ;
#171 = ADVANCED_FACE ( 'NONE', ( #50, #237 ), #29, .T. ) ;
#172 = CARTESIAN_POINT ( 'NONE',  ( 1.316288464743861212E-13, -4.616918432785527392E-15, 37.69999999999999574 ) ) ;
#173 = EDGE_LOOP ( 'NONE', ( #210 ) ) ;
#174 = ADVANCED_FACE ( 'NONE', ( #146 ), #34, .T. ) ;
#175 = CARTESIAN_POINT ( 'NONE',  ( 1.396592535537253342E-14, 0.7499999999999995559, 4.000000000000000000 ) ) ;
#176 = APPLICATION_CONTEXT ( 'configuration controlled 3d designs of mechanical parts and assemblies' ) ;
#177 = CIRCLE ( 'NONE', #93, 0.7500000000000002220 ) ;
#178 = FACE_OUTER_BOUND ( 'NONE', #227, .T. ) ;
#179 = CARTESIAN_POINT ( 'NONE',  ( 1.396592535537253342E-14, 1.124819836996395395E-32, 4.000000000000000000 ) ) ;
#180 = CIRCLE ( 'NONE', #149, 0.7500000000000001110 ) ;
#181 = DIRECTION ( 'NONE',  ( -3.491481338843133355E-15, 1.224646799147354686E-16, -1.000000000000000000 ) ) ;
#182 = ADVANCED_FACE ( 'NONE', ( #49 ), #32, .F. ) ;
#183 = CYLINDRICAL_SURFACE ( 'NONE', #236, 0.7500000000000002220 ) ;
#184 = CARTESIAN_POINT ( 'NONE',  ( 1.326762908760390170E-13, -4.653657836759946674E-15, 37.99999999999999289 ) ) ;
#185 = AXIS2_PLACEMENT_3D ( 'NONE', #150, #162, #234 ) ;
#186 = EDGE_CURVE ( 'NONE', #128, #128, #219, .T. ) ;
#187 = DATE_TIME_ROLE ( 'classification_date' ) ;
#188 = VERTEX_POINT ( 'NONE', #14 ) ;
#189 = APPROVAL_ROLE ( '' ) ;
#190 = EDGE_LOOP ( 'NONE', ( #65 ) ) ;
#191 = CARTESIAN_POINT ( 'NONE',  ( 0.0000000000000000000, 0.0000000000000000000, 0.0000000000000000000 ) ) ;
#192 = APPLICATION_PROTOCOL_DEFINITION ( 'international standard', 'config_control_design', 1994, #176 ) ;
#193 =( NAMED_UNIT ( * ) PLANE_ANGLE_UNIT ( ) SI_UNIT ( $, .RADIAN. ) );
#194 = MANIFOLD_SOLID_BREP ( 'Corps-Déplacer/Copier1[1]', #141 ) ;
#195 = AXIS2_PLACEMENT_3D ( 'NONE', #6, #101, #42 ) ;
#196 = DIRECTION ( 'NONE',  ( 4.292138011278224936E-31, 1.000000000000000000, 1.229317185094960748E-16 ) ) ;
#197 = ORIENTED_EDGE ( 'NONE', *, *, #62, .T. ) ;
#198 = LOCAL_TIME ( 10, 53, 55.00000000000000000, #80 ) ;
#199 = CIRCLE ( 'NONE', #215, 0.7651922469877918687 ) ;
#200 = DIRECTION ( 'NONE',  ( 3.491481338843133355E-15, -1.224646799147354686E-16, 1.000000000000000000 ) ) ;
#201 =( NAMED_UNIT ( * ) SI_UNIT ( $, .STERADIAN. ) SOLID_ANGLE_UNIT ( ) );
#202 = DIRECTION ( 'NONE',  ( -3.491481338843133355E-15, 1.229317185094960748E-16, -1.000000000000000000 ) ) ;
#203 = APPROVAL_STATUS ( 'not_yet_approved' ) ;
#204 = ADVANCED_FACE ( 'NONE', ( #33, #115 ), #183, .T. ) ;
#205 = CC_DESIGN_APPROVAL ( #213, ( #119 ) ) ;
#206 = CC_DESIGN_PERSON_AND_ORGANIZATION_ASSIGNMENT ( #56, #161, ( #142 ) ) ;
#207 = CARTESIAN_POINT ( 'NONE',  ( 1.457221472722074060E-14, -5.130737429346224123E-16, 4.173648177666930970 ) ) ;
#208 = PERSON_AND_ORGANIZATION ( #16, #3 ) ;
#209 = DESIGN_CONTEXT ( 'detailed design', #95, 'design' ) ;
#210 = ORIENTED_EDGE ( 'NONE', *, *, #62, .F. ) ;
#211 = AXIS2_PLACEMENT_3D ( 'NONE', #114, #216, #133 ) ;
#212 = DIRECTION ( 'NONE',  ( 0.0000000000000000000, 1.000000000000000000, 0.0000000000000000000 ) ) ;
#213 = APPROVAL ( #19, 'UNSPECIFIED' ) ;
#214 = DIRECTION ( 'NONE',  ( -4.275831445896963861E-31, -1.000000000000000000, -1.224646799147354686E-16 ) ) ;
#215 = AXIS2_PLACEMENT_3D ( 'NONE', #207, #39, #99 ) ;
#216 = DIRECTION ( 'NONE',  ( -3.491481338843133355E-15, 1.224646799147354686E-16, -1.000000000000000000 ) ) ;
#217 = ADVANCED_FACE ( 'NONE', ( #163, #148 ), #83, .T. ) ;
#218 = COORDINATED_UNIVERSAL_TIME_OFFSET ( 1, 0, .AHEAD. ) ;
#219 = CIRCLE ( 'NONE', #23, 1.200000000000000178 ) ;
#220 = CARTESIAN_POINT ( 'NONE',  ( 0.0000000000000000000, 0.0000000000000000000, 0.0000000000000000000 ) ) ;
#221 = DIRECTION ( 'NONE',  ( 0.0000000000000000000, -1.000000000000000000, 0.0000000000000000000 ) ) ;
#222 = DATE_AND_TIME ( #166, #243 ) ;
#223 = DATE_TIME_ROLE ( 'creation_date' ) ;
#224 = CALENDAR_DATE ( 2021, 9, 12 ) ;
#225 = VERTEX_POINT ( 'NONE', #122 ) ;
#226 = AXIS2_PLACEMENT_3D ( 'NONE', #25, #27, #214 ) ;
#227 = EDGE_LOOP ( 'NONE', ( #105 ) ) ;
#228 = DATE_AND_TIME ( #70, #71 ) ;
#229 = PRODUCT_RELATED_PRODUCT_CATEGORY ( 'detail', '', ( #142 ) ) ;
#230 = EDGE_LOOP ( 'NONE', ( #240 ) ) ;
#231 = VERTEX_POINT ( 'NONE', #175 ) ;
#232 = DIRECTION ( 'NONE',  ( -3.491481338843133355E-15, 1.229317185094960748E-16, -1.000000000000000000 ) ) ;
#233 = APPROVAL_ROLE ( '' ) ;
#234 = DIRECTION ( 'NONE',  ( 4.275831445896963861E-31, 1.000000000000000000, 1.224646799147354686E-16 ) ) ;
#235 = CARTESIAN_POINT ( 'NONE',  ( 1.326762908760390170E-13, 2.197316402903955485E-13, 37.99999999999999289 ) ) ;
#236 = AXIS2_PLACEMENT_3D ( 'NONE', #220, #165, #91 ) ;
#237 = FACE_OUTER_BOUND ( 'NONE', #24, .T. ) ;
#238 = CLOSED_SHELL ( 'NONE', ( #117, #204, #174 ) ) ;
#239 = COORDINATED_UNIVERSAL_TIME_OFFSET ( 1, 0, .AHEAD. ) ;
#240 = ORIENTED_EDGE ( 'NONE', *, *, #186, .T. ) ;
#241 = ORIENTED_EDGE ( 'NONE', *, *, #66, .F. ) ;
#242 = LOCAL_TIME ( 10, 53, 55.00000000000000000, #239 ) ;
#243 = LOCAL_TIME ( 10, 53, 55.00000000000000000, #73 ) ;
ENDSEC;
END-ISO-10303-21;
