ISO-10303-21;
HEADER;
FILE_DESCRIPTION (( 'STEP AP203' ),
    '1' );
FILE_NAME ('378224.step',
    '2021-12-09T09:53:54',
    ( '' ),
    ( '' ),
    'SwSTEP 2.0',
    'SolidWorks 2019',
    '' );
FILE_SCHEMA (( 'CONFIG_CONTROL_DESIGN' ));
ENDSEC;

DATA;
#1 = FACE_OUTER_BOUND ( 'NONE', #32, .T. ) ;
#2 = ORIENTED_EDGE ( 'NONE', *, *, #23, .F. ) ;
#3 = DIRECTION ( 'NONE',  ( 0.0000000000000000000, 1.000000000000000000, 0.0000000000000000000 ) ) ;
#4 = PLANE ( 'NONE',  #188 ) ;
#5 = TOROIDAL_SURFACE ( 'NONE', #236, 1.700000000000000178, 1.000000000000000444 ) ;
#6 = CARTESIAN_POINT ( 'NONE',  ( 2.662084876500292716E-14, -1.500000000000000888, 7.624514119220087593 ) ) ;
#7 = DIRECTION ( 'NONE',  ( 0.0000000000000000000, -1.000000000000000000, 0.0000000000000000000 ) ) ;
#8 = CARTESIAN_POINT ( 'NONE',  ( 1.047444401652940007E-14, 0.6999999999999994005, 3.000000000000000000 ) ) ;
#9 = FACE_OUTER_BOUND ( 'NONE', #83, .T. ) ;
#10 = CARTESIAN_POINT ( 'NONE',  ( 1.326762908760390170E-13, 2.197316402903955485E-13, 37.99999999999999289 ) ) ;
#11 = FACE_OUTER_BOUND ( 'NONE', #162, .T. ) ;
#12 =( LENGTH_UNIT ( ) NAMED_UNIT ( * ) SI_UNIT ( .MILLI., .METRE. ) );
#13 =( GEOMETRIC_REPRESENTATION_CONTEXT ( 3 ) GLOBAL_UNCERTAINTY_ASSIGNED_CONTEXT ( ( #200 ) ) GLOBAL_UNIT_ASSIGNED_CONTEXT ( ( #12, #14, #60 ) ) REPRESENTATION_CONTEXT ( 'NONE', 'WORKASPACE' ) );
#14 =( NAMED_UNIT ( * ) PLANE_ANGLE_UNIT ( ) SI_UNIT ( $, .RADIAN. ) );
#15 = AXIS2_PLACEMENT_3D ( 'NONE', #147, #172, #52 ) ;
#16 = ORIENTED_EDGE ( 'NONE', *, *, #59, .T. ) ;
#17 = COORDINATED_UNIVERSAL_TIME_OFFSET ( 1, 0, .AHEAD. ) ;
#18 = EDGE_LOOP ( 'NONE', ( #131 ) ) ;
#19 = CLOSED_SHELL ( 'NONE', ( #102, #163, #174 ) ) ;
#20 = CARTESIAN_POINT ( 'NONE',  ( 0.0000000000000000000, 0.0000000000000000000, 0.0000000000000000000 ) ) ;
#21 = APPROVAL_DATE_TIME ( #36, #232 ) ;
#22 = FACE_OUTER_BOUND ( 'NONE', #204, .T. ) ;
#23 = EDGE_CURVE ( 'NONE', #180, #180, #185, .T. ) ;
#24 = MANIFOLD_SOLID_BREP ( 'Corps-Déplacer/Copier1[1]', #238 ) ;
#25 = DIRECTION ( 'NONE',  ( 4.275831445896963861E-31, 1.000000000000000000, 1.224646799147354686E-16 ) ) ;
#26 = COORDINATED_UNIVERSAL_TIME_OFFSET ( 1, 0, .AHEAD. ) ;
#27 = AXIS2_PLACEMENT_3D ( 'NONE', #195, #140, #202 ) ;
#28 = CONICAL_SURFACE ( 'NONE', #161, 1.500000000000000000, 0.7853981633974569387 ) ;
#29 = EDGE_CURVE ( 'NONE', #213, #213, #215, .T. ) ;
#30 = DIRECTION ( 'NONE',  ( 0.0000000000000000000, 0.0000000000000000000, 1.000000000000000000 ) ) ;
#31 = AXIS2_PLACEMENT_3D ( 'NONE', #194, #86, #3 ) ;
#32 = EDGE_LOOP ( 'NONE', ( #146 ) ) ;
#33 = APPLICATION_PROTOCOL_DEFINITION ( 'international standard', 'config_control_design', 1994, #209 ) ;
#34 = PERSON_AND_ORGANIZATION ( #61, #208 ) ;
#35 = DIRECTION ( 'NONE',  ( -3.491481338843133355E-15, 1.229317185094960748E-16, -1.000000000000000000 ) ) ;
#36 = DATE_AND_TIME ( #133, #42 ) ;
#37 = CYLINDRICAL_SURFACE ( 'NONE', #220, 0.6999999999999998446 ) ;
#38 = PLANE ( 'NONE',  #55 ) ;
#39 = MECHANICAL_CONTEXT ( 'NONE', #156, 'mechanical' ) ;
#40 = PERSON_AND_ORGANIZATION ( #61, #208 ) ;
#41 = CARTESIAN_POINT ( 'NONE',  ( 1.326762908760390170E-13, 1.199999999999995515, 37.99999999999999289 ) ) ;
#42 = LOCAL_TIME ( 10, 53, 54.00000000000000000, #149 ) ;
#43 = EDGE_CURVE ( 'NONE', #75, #75, #93, .T. ) ;
#44 = EDGE_LOOP ( 'NONE', ( #125 ) ) ;
#45 = DIRECTION ( 'NONE',  ( -3.491481338843133355E-15, 1.224646799147354686E-16, -1.000000000000000000 ) ) ;
#46 = DIRECTION ( 'NONE',  ( 1.000000000000000000, 0.0000000000000000000, 0.0000000000000000000 ) ) ;
#47 = DIRECTION ( 'NONE',  ( 4.275831445896963861E-31, 1.000000000000000000, 1.224646799147354686E-16 ) ) ;
#48 = CALENDAR_DATE ( 2021, 9, 12 ) ;
#49 = FACE_OUTER_BOUND ( 'NONE', #166, .T. ) ;
#50 = PLANE ( 'NONE',  #58 ) ;
#51 = CIRCLE ( 'NONE', #198, 0.6999999999999997335 ) ;
#52 = DIRECTION ( 'NONE',  ( 0.0000000000000000000, -1.000000000000000000, 0.0000000000000000000 ) ) ;
#53 = DATE_AND_TIME ( #212, #237 ) ;
#54 = CARTESIAN_POINT ( 'NONE',  ( 2.662084876500292716E-14, -9.372946234756423095E-16, 7.624514119220087593 ) ) ;
#55 = AXIS2_PLACEMENT_3D ( 'NONE', #10, #94, #25 ) ;
#56 = ADVANCED_FACE ( 'NONE', ( #100, #11 ), #57, .T. ) ;
#57 = CYLINDRICAL_SURFACE ( 'NONE', #135, 1.500000000000000000 ) ;
#58 = AXIS2_PLACEMENT_3D ( 'NONE', #65, #82, #109 ) ;
#59 = EDGE_CURVE ( 'NONE', #197, #197, #51, .T. ) ;
#60 =( NAMED_UNIT ( * ) SI_UNIT ( $, .STERADIAN. ) SOLID_ANGLE_UNIT ( ) );
#61 = PERSON ( 'UNSPECIFIED', 'UNSPECIFIED', 'UNSPECIFIED', ('UNSPECIFIED'), ('UNSPECIFIED'), ('UNSPECIFIED') ) ;
#62 = CC_DESIGN_APPROVAL ( #129, ( #144 ) ) ;
#63 = CC_DESIGN_PERSON_AND_ORGANIZATION_ASSIGNMENT ( #72, #242, ( #79 ) ) ;
#64 = ORIENTED_EDGE ( 'NONE', *, *, #96, .F. ) ;
#65 = CARTESIAN_POINT ( 'NONE',  ( -3.206873584422722458E-31, 1.124819836996396080E-32, -9.184850993605159531E-17 ) ) ;
#66 = DIRECTION ( 'NONE',  ( 0.0000000000000000000, 1.000000000000000000, 0.0000000000000000000 ) ) ;
#67 = FACE_BOUND ( 'NONE', #239, .T. ) ;
#68 = PERSON_AND_ORGANIZATION ( #61, #208 ) ;
#69 = PRODUCT_RELATED_PRODUCT_CATEGORY ( 'detail', '', ( #124 ) ) ;
#70 = ORIENTED_EDGE ( 'NONE', *, *, #29, .F. ) ;
#71 = FACE_OUTER_BOUND ( 'NONE', #105, .T. ) ;
#72 = PERSON_AND_ORGANIZATION ( #61, #208 ) ;
#73 = CARTESIAN_POINT ( 'NONE',  ( 1.047444401652940007E-14, 1.124819836996395395E-32, 3.000000000000000000 ) ) ;
#74 = CIRCLE ( 'NONE', #177, 0.6999999999999997335 ) ;
#75 = VERTEX_POINT ( 'NONE', #113 ) ;
#76 = CARTESIAN_POINT ( 'NONE',  ( -1.282749433769088983E-30, 0.7000000000000000666, -3.673940397442063812E-16 ) ) ;
#77 = APPROVAL_PERSON_ORGANIZATION ( #40, #129, #199 ) ;
#78 = VERTEX_POINT ( 'NONE', #41 ) ;
#79 = PRODUCT_DEFINITION ( 'UNKNOWN', '', #224, #184 ) ;
#80 = FACE_OUTER_BOUND ( 'NONE', #160, .T. ) ;
#81 = PRODUCT_DEFINITION_SHAPE ( 'NONE', 'NONE',  #79 ) ;
#82 = DIRECTION ( 'NONE',  ( -3.491481338843133355E-15, 1.224646799147354686E-16, -1.000000000000000000 ) ) ;
#83 = EDGE_LOOP ( 'NONE', ( #85 ) ) ;
#84 = CC_DESIGN_DATE_AND_TIME_ASSIGNMENT ( #157, #176, ( #144 ) ) ;
#85 = ORIENTED_EDGE ( 'NONE', *, *, #169, .F. ) ;
#86 = DIRECTION ( 'NONE',  ( -3.491481338843133355E-15, 1.224646799147354686E-16, -1.000000000000000000 ) ) ;
#87 = FACE_BOUND ( 'NONE', #44, .T. ) ;
#88 = CC_DESIGN_PERSON_AND_ORGANIZATION_ASSIGNMENT ( #114, #219, ( #224 ) ) ;
#89 = AXIS2_PLACEMENT_3D ( 'NONE', #226, #45, #115 ) ;
#90 = CARTESIAN_POINT ( 'NONE',  ( 1.047444401652940007E-14, 1.124819836996395395E-32, 3.000000000000000000 ) ) ;
#91 = CARTESIAN_POINT ( 'NONE',  ( 1.047444401652940007E-14, 0.6999999999999994005, 3.000000000000000000 ) ) ;
#92 = CARTESIAN_POINT ( 'NONE',  ( 1.316288464743861212E-13, 1.499999999999995559, 37.69999999999999574 ) ) ;
#93 = CIRCLE ( 'NONE', #27, 0.7151922469877917132 ) ;
#94 = DIRECTION ( 'NONE',  ( -3.491481338843133355E-15, 1.224646799147354686E-16, -1.000000000000000000 ) ) ;
#95 = LOCAL_TIME ( 10, 53, 54.00000000000000000, #26 ) ;
#96 = EDGE_CURVE ( 'NONE', #233, #233, #74, .T. ) ;
#97 = ORIENTED_EDGE ( 'NONE', *, *, #29, .T. ) ;
#98 = APPROVAL_PERSON_ORGANIZATION ( #34, #232, #168 ) ;
#99 = ORIENTED_EDGE ( 'NONE', *, *, #169, .T. ) ;
#100 = FACE_OUTER_BOUND ( 'NONE', #191, .T. ) ;
#101 = DIRECTION ( 'NONE',  ( -3.491481338843133355E-15, 1.229317185094960748E-16, -1.000000000000000000 ) ) ;
#102 = ADVANCED_FACE ( 'NONE', ( #193 ), #4, .T. ) ;
#103 = EDGE_LOOP ( 'NONE', ( #127 ) ) ;
#104 = APPROVAL_STATUS ( 'not_yet_approved' ) ;
#105 = EDGE_LOOP ( 'NONE', ( #97 ) ) ;
#106 = DIRECTION ( 'NONE',  ( 4.292138011278225812E-31, 1.000000000000000000, 1.229317185094960995E-16 ) ) ;
#107 = COORDINATED_UNIVERSAL_TIME_OFFSET ( 1, 0, .AHEAD. ) ;
#108 = AXIS2_PLACEMENT_3D ( 'NONE', #54, #139, #7 ) ;
#109 = DIRECTION ( 'NONE',  ( 4.275831445896963861E-31, 1.000000000000000000, 1.224646799147354686E-16 ) ) ;
#110 = PERSON_AND_ORGANIZATION_ROLE ( 'design_owner' ) ;
#111 = ADVANCED_FACE ( 'NONE', ( #1, #170 ), #5, .F. ) ;
#112 = APPROVAL_PERSON_ORGANIZATION ( #68, #201, #165 ) ;
#113 = CARTESIAN_POINT ( 'NONE',  ( 1.108073338837760724E-14, 0.7151922469877912691, 3.173648177666930970 ) ) ;
#114 = PERSON_AND_ORGANIZATION ( #61, #208 ) ;
#115 = DIRECTION ( 'NONE',  ( 0.0000000000000000000, 1.000000000000000000, 0.0000000000000000000 ) ) ;
#116 = APPROVAL_DATE_TIME ( #183, #129 ) ;
#117 = VERTEX_POINT ( 'NONE', #92 ) ;
#118 = DIRECTION ( 'NONE',  ( -4.275831445896963861E-31, -1.000000000000000000, -1.224646799147354686E-16 ) ) ;
#119 = CALENDAR_DATE ( 2021, 9, 12 ) ;
#120 = CIRCLE ( 'NONE', #89, 1.500000000000000000 ) ;
#121 = CC_DESIGN_DATE_AND_TIME_ASSIGNMENT ( #137, #206, ( #79 ) ) ;
#122 = CARTESIAN_POINT ( 'NONE',  ( 0.0000000000000000000, 0.0000000000000000000, 0.0000000000000000000 ) ) ;
#123 = CC_DESIGN_PERSON_AND_ORGANIZATION_ASSIGNMENT ( #134, #110, ( #124 ) ) ;
#124 = PRODUCT ( '378224', '378224', '', ( #39 ) ) ;
#125 = ORIENTED_EDGE ( 'NONE', *, *, #43, .F. ) ;
#126 = AXIS2_PLACEMENT_3D ( 'NONE', #122, #30, #46 ) ;
#127 = ORIENTED_EDGE ( 'NONE', *, *, #43, .T. ) ;
#128 = ORIENTED_EDGE ( 'NONE', *, *, #217, .T. ) ;
#129 = APPROVAL ( #234, 'UNSPECIFIED' ) ;
#130 = CARTESIAN_POINT ( 'NONE',  ( 1.047444401652940007E-14, -3.687951555284882245E-16, 3.000000000000000000 ) ) ;
#131 = ORIENTED_EDGE ( 'NONE', *, *, #96, .T. ) ;
#132 = DIRECTION ( 'NONE',  ( -3.491481338843133355E-15, 1.224646799147354686E-16, -1.000000000000000000 ) ) ;
#133 = CALENDAR_DATE ( 2021, 9, 12 ) ;
#134 = PERSON_AND_ORGANIZATION ( #61, #208 ) ;
#135 = AXIS2_PLACEMENT_3D ( 'NONE', #221, #222, #47 ) ;
#136 = CARTESIAN_POINT ( 'NONE',  ( -1.583199094558564860E-30, 5.574292586688998088E-32, -4.534462427008536385E-16 ) ) ;
#137 = DATE_AND_TIME ( #48, #152 ) ;
#138 = ADVANCED_BREP_SHAPE_REPRESENTATION ( '378224', ( #24, #190, #126 ), #13 ) ;
#139 = DIRECTION ( 'NONE',  ( -3.491481338843133355E-15, 1.229317185094960748E-16, -1.000000000000000000 ) ) ;
#140 = DIRECTION ( 'NONE',  ( -3.491481338843133355E-15, 1.229317185094960748E-16, -1.000000000000000000 ) ) ;
#141 = COORDINATED_UNIVERSAL_TIME_OFFSET ( 1, 0, .AHEAD. ) ;
#142 = CALENDAR_DATE ( 2021, 9, 12 ) ;
#143 = CIRCLE ( 'NONE', #31, 1.200000000000000178 ) ;
#144 = SECURITY_CLASSIFICATION ( '', '', #218 ) ;
#145 = APPLICATION_PROTOCOL_DEFINITION ( 'international standard', 'config_control_design', 1994, #156 ) ;
#146 = ORIENTED_EDGE ( 'NONE', *, *, #59, .F. ) ;
#147 = CARTESIAN_POINT ( 'NONE',  ( 9.592496000680720049E-14, -3.377426094306069483E-15, 27.47400048788201588 ) ) ;
#148 = ADVANCED_FACE ( 'NONE', ( #67, #49 ), #28, .T. ) ;
#149 = COORDINATED_UNIVERSAL_TIME_OFFSET ( 1, 0, .AHEAD. ) ;
#150 = DIRECTION ( 'NONE',  ( -3.491481338843133355E-15, 1.229317185094960748E-16, -1.000000000000000000 ) ) ;
#151 = CARTESIAN_POINT ( 'NONE',  ( 1.047444401652940007E-14, -3.687951555284882245E-16, 3.000000000000000000 ) ) ;
#152 = LOCAL_TIME ( 10, 53, 54.00000000000000000, #107 ) ;
#153 = APPROVAL_DATE_TIME ( #53, #201 ) ;
#154 = AXIS2_PLACEMENT_3D ( 'NONE', #90, #175, #118 ) ;
#155 = PERSON_AND_ORGANIZATION ( #61, #208 ) ;
#156 = APPLICATION_CONTEXT ( 'configuration controlled 3d designs of mechanical parts and assemblies' ) ;
#157 = DATE_AND_TIME ( #142, #95 ) ;
#158 = PLANE ( 'NONE',  #154 ) ;
#159 = CC_DESIGN_PERSON_AND_ORGANIZATION_ASSIGNMENT ( #155, #216, ( #144 ) ) ;
#160 = EDGE_LOOP ( 'NONE', ( #16 ) ) ;
#161 = AXIS2_PLACEMENT_3D ( 'NONE', #231, #132, #164 ) ;
#162 = EDGE_LOOP ( 'NONE', ( #128 ) ) ;
#163 = ADVANCED_FACE ( 'NONE', ( #211, #240 ), #37, .T. ) ;
#164 = DIRECTION ( 'NONE',  ( 0.0000000000000000000, 1.000000000000000000, 0.0000000000000000000 ) ) ;
#165 = APPROVAL_ROLE ( '' ) ;
#166 = EDGE_LOOP ( 'NONE', ( #223 ) ) ;
#167 = DIRECTION ( 'NONE',  ( 3.491481338843133355E-15, -1.224646799147354686E-16, 1.000000000000000000 ) ) ;
#168 = APPROVAL_ROLE ( '' ) ;
#169 = EDGE_CURVE ( 'NONE', #78, #78, #143, .T. ) ;
#170 = FACE_OUTER_BOUND ( 'NONE', #103, .T. ) ;
#171 = PERSON_AND_ORGANIZATION ( #61, #208 ) ;
#172 = DIRECTION ( 'NONE',  ( 3.491481338843133355E-15, -1.229317185094960748E-16, 1.000000000000000000 ) ) ;
#173 = PERSON_AND_ORGANIZATION_ROLE ( 'creator' ) ;
#174 = ADVANCED_FACE ( 'NONE', ( #71 ), #50, .T. ) ;
#175 = DIRECTION ( 'NONE',  ( 3.491481338843133355E-15, -1.224646799147354686E-16, 1.000000000000000000 ) ) ;
#176 = DATE_TIME_ROLE ( 'classification_date' ) ;
#177 = AXIS2_PLACEMENT_3D ( 'NONE', #130, #150, #229 ) ;
#178 = CC_DESIGN_APPROVAL ( #201, ( #79 ) ) ;
#179 = SHAPE_DEFINITION_REPRESENTATION ( #81, #138 ) ;
#180 = VERTEX_POINT ( 'NONE', #6 ) ;
#181 = AXIS2_PLACEMENT_3D ( 'NONE', #136, #214, #235 ) ;
#182 = ADVANCED_FACE ( 'NONE', ( #22, #87 ), #205, .T. ) ;
#183 = DATE_AND_TIME ( #119, #186 ) ;
#184 = DESIGN_CONTEXT ( 'detailed design', #209, 'design' ) ;
#185 = CIRCLE ( 'NONE', #108, 1.500000000000000000 ) ;
#186 = LOCAL_TIME ( 10, 53, 54.00000000000000000, #141 ) ;
#187 = CC_DESIGN_PERSON_AND_ORGANIZATION_ASSIGNMENT ( #171, #173, ( #224 ) ) ;
#188 = AXIS2_PLACEMENT_3D ( 'NONE', #73, #167, #210 ) ;
#189 = ORIENTED_EDGE ( 'NONE', *, *, #23, .T. ) ;
#190 = MANIFOLD_SOLID_BREP ( 'Corps-Déplacer/Copier1[2]', #19 ) ;
#191 = EDGE_LOOP ( 'NONE', ( #2 ) ) ;
#192 = CC_DESIGN_APPROVAL ( #232, ( #224 ) ) ;
#193 = FACE_OUTER_BOUND ( 'NONE', #228, .T. ) ;
#194 = CARTESIAN_POINT ( 'NONE',  ( 1.326762908760390170E-13, -4.653657836759946674E-15, 37.99999999999999289 ) ) ;
#195 = CARTESIAN_POINT ( 'NONE',  ( 1.108073338837760724E-14, -3.901420244251263375E-16, 3.173648177666930970 ) ) ;
#196 = DIRECTION ( 'NONE',  ( 4.390490953512519871E-31, 1.000000000000000000, 1.229317185094960748E-16 ) ) ;
#197 = VERTEX_POINT ( 'NONE', #8 ) ;
#198 = AXIS2_PLACEMENT_3D ( 'NONE', #151, #101, #66 ) ;
#199 = APPROVAL_ROLE ( '' ) ;
#200 = UNCERTAINTY_MEASURE_WITH_UNIT (LENGTH_MEASURE( 1.000000000000000082E-05 ), #12, 'distance_accuracy_value', 'NONE');
#201 = APPROVAL ( #230, 'UNSPECIFIED' ) ;
#202 = DIRECTION ( 'NONE',  ( 0.0000000000000000000, 1.000000000000000000, 0.0000000000000000000 ) ) ;
#203 = DIRECTION ( 'NONE',  ( -3.491481338843133355E-15, 1.229317185094960748E-16, -1.000000000000000000 ) ) ;
#204 = EDGE_LOOP ( 'NONE', ( #189 ) ) ;
#205 = CONICAL_SURFACE ( 'NONE', #15, 4.999999999999999112, 0.1745329251994333919 ) ;
#206 = DATE_TIME_ROLE ( 'creation_date' ) ;
#207 = CARTESIAN_POINT ( 'NONE',  ( 1.047444401652940007E-14, -4.336808689942017736E-16, 3.000000000000000000 ) ) ;
#208 = ORGANIZATION ( 'UNSPECIFIED', 'UNSPECIFIED', '' ) ;
#209 = APPLICATION_CONTEXT ( 'configuration controlled 3d designs of mechanical parts and assemblies' ) ;
#210 = DIRECTION ( 'NONE',  ( -4.275831445896963861E-31, -1.000000000000000000, -1.224646799147354686E-16 ) ) ;
#211 = FACE_OUTER_BOUND ( 'NONE', #225, .T. ) ;
#212 = CALENDAR_DATE ( 2021, 9, 12 ) ;
#213 = VERTEX_POINT ( 'NONE', #76 ) ;
#214 = DIRECTION ( 'NONE',  ( -3.491481338843133355E-15, 1.229317185094960748E-16, -1.000000000000000000 ) ) ;
#215 = CIRCLE ( 'NONE', #181, 0.7000000000000000666 ) ;
#216 = PERSON_AND_ORGANIZATION_ROLE ( 'classification_officer' ) ;
#217 = EDGE_CURVE ( 'NONE', #117, #117, #120, .T. ) ;
#218 = SECURITY_CLASSIFICATION_LEVEL ( 'unclassified' ) ;
#219 = PERSON_AND_ORGANIZATION_ROLE ( 'design_supplier' ) ;
#220 = AXIS2_PLACEMENT_3D ( 'NONE', #20, #35, #106 ) ;
#221 = CARTESIAN_POINT ( 'NONE',  ( 0.0000000000000000000, 0.0000000000000000000, 0.0000000000000000000 ) ) ;
#222 = DIRECTION ( 'NONE',  ( -3.491481338843133355E-15, 1.224646799147354686E-16, -1.000000000000000000 ) ) ;
#223 = ORIENTED_EDGE ( 'NONE', *, *, #217, .F. ) ;
#224 = PRODUCT_DEFINITION_FORMATION_WITH_SPECIFIED_SOURCE ( 'ANY', '', #124, .NOT_KNOWN. ) ;
#225 = EDGE_LOOP ( 'NONE', ( #70 ) ) ;
#226 = CARTESIAN_POINT ( 'NONE',  ( 1.316288464743861212E-13, -4.616918432785527392E-15, 37.69999999999999574 ) ) ;
#227 = ADVANCED_FACE ( 'NONE', ( #80 ), #158, .F. ) ;
#228 = EDGE_LOOP ( 'NONE', ( #64 ) ) ;
#229 = DIRECTION ( 'NONE',  ( 0.0000000000000000000, 1.000000000000000000, 0.0000000000000000000 ) ) ;
#230 = APPROVAL_STATUS ( 'not_yet_approved' ) ;
#231 = CARTESIAN_POINT ( 'NONE',  ( 1.316288464743861212E-13, -4.616918432785527392E-15, 37.69999999999999574 ) ) ;
#232 = APPROVAL ( #104, 'UNSPECIFIED' ) ;
#233 = VERTEX_POINT ( 'NONE', #91 ) ;
#234 = APPROVAL_STATUS ( 'not_yet_approved' ) ;
#235 = DIRECTION ( 'NONE',  ( 4.292138011278224936E-31, 1.000000000000000000, 1.229317185094960995E-16 ) ) ;
#236 = AXIS2_PLACEMENT_3D ( 'NONE', #207, #203, #196 ) ;
#237 = LOCAL_TIME ( 10, 53, 54.00000000000000000, #17 ) ;
#238 = CLOSED_SHELL ( 'NONE', ( #56, #148, #241, #111, #182, #227 ) ) ;
#239 = EDGE_LOOP ( 'NONE', ( #99 ) ) ;
#240 = FACE_OUTER_BOUND ( 'NONE', #18, .T. ) ;
#241 = ADVANCED_FACE ( 'NONE', ( #9 ), #38, .F. ) ;
#242 = PERSON_AND_ORGANIZATION_ROLE ( 'creator' ) ;
#243 = CC_DESIGN_SECURITY_CLASSIFICATION ( #144, ( #224 ) ) ;
ENDSEC;
END-ISO-10303-21;
