ISO-10303-21;
HEADER;
FILE_DESCRIPTION (( 'STEP AP203' ),
    '1' );
FILE_NAME ('378223.step',
    '2021-12-09T09:53:54',
    ( '' ),
    ( '' ),
    'SwSTEP 2.0',
    'SolidWorks 2019',
    '' );
FILE_SCHEMA (( 'CONFIG_CONTROL_DESIGN' ));
ENDSEC;

DATA;
#1 = DATE_AND_TIME ( #197, #31 ) ;
#2 = AXIS2_PLACEMENT_3D ( 'NONE', #46, #47, #87 ) ;
#3 = APPROVAL ( #192, 'UNSPECIFIED' ) ;
#4 = ORIENTED_EDGE ( 'NONE', *, *, #241, .F. ) ;
#5 = AXIS2_PLACEMENT_3D ( 'NONE', #22, #101, #42 ) ;
#6 = DIRECTION ( 'NONE',  ( 4.275831445896963861E-31, 1.000000000000000000, 1.224646799147354686E-16 ) ) ;
#7 = EDGE_LOOP ( 'NONE', ( #53 ) ) ;
#8 = FACE_OUTER_BOUND ( 'NONE', #183, .T. ) ;
#9 = ORIENTED_EDGE ( 'NONE', *, *, #110, .F. ) ;
#10 = CIRCLE ( 'NONE', #64, 0.6651922469877917798 ) ;
#11 = ORIENTED_EDGE ( 'NONE', *, *, #110, .T. ) ;
#12 = DIRECTION ( 'NONE',  ( 4.275831445896963861E-31, 1.000000000000000000, 1.224646799147354686E-16 ) ) ;
#13 = APPROVAL_DATE_TIME ( #172, #3 ) ;
#14 = AXIS2_PLACEMENT_3D ( 'NONE', #218, #221, #147 ) ;
#15 = ORIENTED_EDGE ( 'NONE', *, *, #73, .T. ) ;
#16 = APPLICATION_PROTOCOL_DEFINITION ( 'international standard', 'config_control_design', 1994, #148 ) ;
#17 = CALENDAR_DATE ( 2021, 9, 12 ) ;
#18 = APPLICATION_PROTOCOL_DEFINITION ( 'international standard', 'config_control_design', 1994, #214 ) ;
#19 = PLANE ( 'NONE',  #5 ) ;
#20 = APPROVAL ( #140, 'UNSPECIFIED' ) ;
#21 = VERTEX_POINT ( 'NONE', #59 ) ;
#22 = CARTESIAN_POINT ( 'NONE',  ( 1.326762908760390170E-13, 2.197316402903955485E-13, 37.99999999999999289 ) ) ;
#23 = LOCAL_TIME ( 10, 53, 54.00000000000000000, #208 ) ;
#24 = COORDINATED_UNIVERSAL_TIME_OFFSET ( 1, 0, .AHEAD. ) ;
#25 = FACE_OUTER_BOUND ( 'NONE', #199, .T. ) ;
#26 = DIRECTION ( 'NONE',  ( -3.491481338843133355E-15, 1.224646799147354686E-16, -1.000000000000000000 ) ) ;
#27 = CC_DESIGN_SECURITY_CLASSIFICATION ( #236, ( #188 ) ) ;
#28 = FACE_OUTER_BOUND ( 'NONE', #133, .T. ) ;
#29 = MANIFOLD_SOLID_BREP ( 'Corps-Déplacer/Copier1[1]', #206 ) ;
#30 = EDGE_CURVE ( 'NONE', #233, #233, #178, .T. ) ;
#31 = LOCAL_TIME ( 10, 53, 54.00000000000000000, #120 ) ;
#32 = DIRECTION ( 'NONE',  ( -3.491481338843133355E-15, 1.229317185094960748E-16, -1.000000000000000000 ) ) ;
#33 = EDGE_LOOP ( 'NONE', ( #4 ) ) ;
#34 = DIRECTION ( 'NONE',  ( -3.491481338843133355E-15, 1.229317185094960748E-16, -1.000000000000000000 ) ) ;
#35 = PRODUCT_DEFINITION_SHAPE ( 'NONE', 'NONE',  #151 ) ;
#36 = AXIS2_PLACEMENT_3D ( 'NONE', #132, #169, #200 ) ;
#37 = VERTEX_POINT ( 'NONE', #137 ) ;
#38 = APPROVAL ( #242, 'UNSPECIFIED' ) ;
#39 = CALENDAR_DATE ( 2021, 9, 12 ) ;
#40 = PERSON_AND_ORGANIZATION ( #177, #149 ) ;
#41 = CARTESIAN_POINT ( 'NONE',  ( 0.0000000000000000000, 0.0000000000000000000, 0.0000000000000000000 ) ) ;
#42 = DIRECTION ( 'NONE',  ( 4.275831445896963861E-31, 1.000000000000000000, 1.224646799147354686E-16 ) ) ;
#43 = APPROVAL_ROLE ( '' ) ;
#44 = CARTESIAN_POINT ( 'NONE',  ( 1.047444401652940007E-14, -4.336808689942017736E-16, 3.000000000000000000 ) ) ;
#45 = SHAPE_DEFINITION_REPRESENTATION ( #35, #83 ) ;
#46 = CARTESIAN_POINT ( 'NONE',  ( 1.047444401652940007E-14, -3.687951555284882245E-16, 3.000000000000000000 ) ) ;
#47 = DIRECTION ( 'NONE',  ( -3.491481338843133355E-15, 1.229317185094960748E-16, -1.000000000000000000 ) ) ;
#48 = TOROIDAL_SURFACE ( 'NONE', #160, 1.649999999999999911, 1.000000000000000222 ) ;
#49 = AXIS2_PLACEMENT_3D ( 'NONE', #182, #215, #51 ) ;
#50 = ORIENTED_EDGE ( 'NONE', *, *, #124, .F. ) ;
#51 = DIRECTION ( 'NONE',  ( -4.275831445896963861E-31, -1.000000000000000000, -1.224646799147354686E-16 ) ) ;
#52 = CYLINDRICAL_SURFACE ( 'NONE', #81, 1.500000000000000000 ) ;
#53 = ORIENTED_EDGE ( 'NONE', *, *, #30, .F. ) ;
#54 = VERTEX_POINT ( 'NONE', #235 ) ;
#55 = ADVANCED_FACE ( 'NONE', ( #25 ), #19, .F. ) ;
#56 = PLANE ( 'NONE',  #231 ) ;
#57 = CALENDAR_DATE ( 2021, 9, 12 ) ;
#58 = FACE_OUTER_BOUND ( 'NONE', #170, .T. ) ;
#59 = CARTESIAN_POINT ( 'NONE',  ( 1.108073338837760724E-14, 0.6651922469877913358, 3.173648177666930970 ) ) ;
#60 = COORDINATED_UNIVERSAL_TIME_OFFSET ( 1, 0, .AHEAD. ) ;
#61 = MECHANICAL_CONTEXT ( 'NONE', #148, 'mechanical' ) ;
#62 = PERSON_AND_ORGANIZATION ( #177, #149 ) ;
#63 = DIRECTION ( 'NONE',  ( 0.0000000000000000000, 1.000000000000000000, 0.0000000000000000000 ) ) ;
#64 = AXIS2_PLACEMENT_3D ( 'NONE', #243, #122, #63 ) ;
#65 = FACE_BOUND ( 'NONE', #93, .T. ) ;
#66 = APPROVAL_DATE_TIME ( #1, #38 ) ;
#67 = ADVANCED_FACE ( 'NONE', ( #155 ), #56, .F. ) ;
#68 = CC_DESIGN_APPROVAL ( #3, ( #151 ) ) ;
#69 = DIRECTION ( 'NONE',  ( -3.491481338843133355E-15, 1.224646799147354686E-16, -1.000000000000000000 ) ) ;
#70 = ADVANCED_FACE ( 'NONE', ( #207, #58 ), #48, .F. ) ;
#71 = CONICAL_SURFACE ( 'NONE', #213, 1.500000000000000000, 0.7853981633974569387 ) ;
#72 = CARTESIAN_POINT ( 'NONE',  ( 1.316288464743861212E-13, 1.499999999999995559, 37.69999999999999574 ) ) ;
#73 = EDGE_CURVE ( 'NONE', #145, #145, #82, .T. ) ;
#74 = PRODUCT ( '378223', '378223', '', ( #61 ) ) ;
#75 = VERTEX_POINT ( 'NONE', #113 ) ;
#76 = PERSON_AND_ORGANIZATION ( #177, #149 ) ;
#77 = DIRECTION ( 'NONE',  ( -4.275831445896963861E-31, -1.000000000000000000, -1.224646799147354686E-16 ) ) ;
#78 =( NAMED_UNIT ( * ) SI_UNIT ( $, .STERADIAN. ) SOLID_ANGLE_UNIT ( ) );
#79 = DATE_AND_TIME ( #17, #102 ) ;
#80 = DIRECTION ( 'NONE',  ( 0.0000000000000000000, 1.000000000000000000, 0.0000000000000000000 ) ) ;
#81 = AXIS2_PLACEMENT_3D ( 'NONE', #129, #203, #12 ) ;
#82 = CIRCLE ( 'NONE', #2, 0.6499999999999999112 ) ;
#83 = ADVANCED_BREP_SHAPE_REPRESENTATION ( '378223', ( #29, #195, #97 ), #189 ) ;
#84 = DATE_TIME_ROLE ( 'creation_date' ) ;
#85 = CIRCLE ( 'NONE', #125, 0.6500000000000000222 ) ;
#86 = FACE_OUTER_BOUND ( 'NONE', #33, .T. ) ;
#87 = DIRECTION ( 'NONE',  ( 0.0000000000000000000, 1.000000000000000000, 0.0000000000000000000 ) ) ;
#88 = CC_DESIGN_APPROVAL ( #20, ( #188 ) ) ;
#89 = EDGE_LOOP ( 'NONE', ( #11 ) ) ;
#90 = ORIENTED_EDGE ( 'NONE', *, *, #124, .T. ) ;
#91 = ORIENTED_EDGE ( 'NONE', *, *, #30, .T. ) ;
#92 = CARTESIAN_POINT ( 'NONE',  ( -3.206873584422722458E-31, 1.124819836996396080E-32, -9.184850993605159531E-17 ) ) ;
#93 = EDGE_LOOP ( 'NONE', ( #50 ) ) ;
#94 = CARTESIAN_POINT ( 'NONE',  ( 1.047444401652940007E-14, -3.687951555284882245E-16, 3.000000000000000000 ) ) ;
#95 = ADVANCED_FACE ( 'NONE', ( #28, #65 ), #164, .T. ) ;
#96 = DIRECTION ( 'NONE',  ( 0.0000000000000000000, 0.0000000000000000000, 1.000000000000000000 ) ) ;
#97 = AXIS2_PLACEMENT_3D ( 'NONE', #41, #96, #115 ) ;
#98 = DIRECTION ( 'NONE',  ( 3.491481338843133355E-15, -1.224646799147354686E-16, 1.000000000000000000 ) ) ;
#99 = DIRECTION ( 'NONE',  ( -3.491481338843133355E-15, 1.224646799147354686E-16, -1.000000000000000000 ) ) ;
#100 = PERSON_AND_ORGANIZATION_ROLE ( 'design_supplier' ) ;
#101 = DIRECTION ( 'NONE',  ( -3.491481338843133355E-15, 1.224646799147354686E-16, -1.000000000000000000 ) ) ;
#102 = LOCAL_TIME ( 10, 53, 54.00000000000000000, #24 ) ;
#103 = APPROVAL_ROLE ( '' ) ;
#104 = LOCAL_TIME ( 10, 53, 54.00000000000000000, #60 ) ;
#105 = APPROVAL_PERSON_ORGANIZATION ( #62, #20, #103 ) ;
#106 = ORIENTED_EDGE ( 'NONE', *, *, #186, .T. ) ;
#107 = PRODUCT_RELATED_PRODUCT_CATEGORY ( 'detail', '', ( #74 ) ) ;
#108 = EDGE_LOOP ( 'NONE', ( #111 ) ) ;
#109 = EDGE_LOOP ( 'NONE', ( #234 ) ) ;
#110 = EDGE_CURVE ( 'NONE', #54, #54, #112, .T. ) ;
#111 = ORIENTED_EDGE ( 'NONE', *, *, #73, .F. ) ;
#112 = CIRCLE ( 'NONE', #201, 1.200000000000000178 ) ;
#113 = CARTESIAN_POINT ( 'NONE',  ( 1.047444401652940007E-14, 0.6499999999999995781, 3.000000000000000000 ) ) ;
#114 = DESIGN_CONTEXT ( 'detailed design', #214, 'design' ) ;
#115 = DIRECTION ( 'NONE',  ( 1.000000000000000000, 0.0000000000000000000, 0.0000000000000000000 ) ) ;
#116 = APPROVAL_PERSON_ORGANIZATION ( #175, #38, #43 ) ;
#117 = PERSON_AND_ORGANIZATION_ROLE ( 'classification_officer' ) ;
#118 = ADVANCED_FACE ( 'NONE', ( #180 ), #126, .T. ) ;
#119 = VERTEX_POINT ( 'NONE', #196 ) ;
#120 = COORDINATED_UNIVERSAL_TIME_OFFSET ( 1, 0, .AHEAD. ) ;
#121 = AXIS2_PLACEMENT_3D ( 'NONE', #94, #32, #185 ) ;
#122 = DIRECTION ( 'NONE',  ( -3.491481338843133355E-15, 1.229317185094960748E-16, -1.000000000000000000 ) ) ;
#123 = DIRECTION ( 'NONE',  ( 0.0000000000000000000, 1.000000000000000000, 0.0000000000000000000 ) ) ;
#124 = EDGE_CURVE ( 'NONE', #21, #21, #10, .T. ) ;
#125 = AXIS2_PLACEMENT_3D ( 'NONE', #165, #34, #135 ) ;
#126 = PLANE ( 'NONE',  #49 ) ;
#127 = ORIENTED_EDGE ( 'NONE', *, *, #186, .F. ) ;
#128 = ADVANCED_FACE ( 'NONE', ( #176, #141 ), #71, .T. ) ;
#129 = CARTESIAN_POINT ( 'NONE',  ( 0.0000000000000000000, 0.0000000000000000000, 0.0000000000000000000 ) ) ;
#130 = AXIS2_PLACEMENT_3D ( 'NONE', #223, #99, #80 ) ;
#131 = EDGE_LOOP ( 'NONE', ( #91 ) ) ;
#132 = CARTESIAN_POINT ( 'NONE',  ( 2.761090749702869474E-14, -9.721536444875054337E-16, 7.908078210200970126 ) ) ;
#133 = EDGE_LOOP ( 'NONE', ( #106 ) ) ;
#134 = ORIENTED_EDGE ( 'NONE', *, *, #241, .T. ) ;
#135 = DIRECTION ( 'NONE',  ( 4.292138011278224060E-31, 1.000000000000000000, 1.229317185094960748E-16 ) ) ;
#136 = CARTESIAN_POINT ( 'NONE',  ( 1.047444401652940007E-14, 1.124819836996395395E-32, 3.000000000000000000 ) ) ;
#137 = CARTESIAN_POINT ( 'NONE',  ( -1.282749433769088808E-30, 0.6500000000000000222, -3.673940397442063319E-16 ) ) ;
#138 = CIRCLE ( 'NONE', #121, 0.6499999999999999112 ) ;
#139 = APPROVAL_ROLE ( '' ) ;
#140 = APPROVAL_STATUS ( 'not_yet_approved' ) ;
#141 = FACE_OUTER_BOUND ( 'NONE', #7, .T. ) ;
#142 = DIRECTION ( 'NONE',  ( 0.0000000000000000000, -1.000000000000000000, 0.0000000000000000000 ) ) ;
#143 = DIRECTION ( 'NONE',  ( -3.491481338843133355E-15, 1.229317185094960748E-16, -1.000000000000000000 ) ) ;
#144 = CC_DESIGN_DATE_AND_TIME_ASSIGNMENT ( #227, #173, ( #236 ) ) ;
#145 = VERTEX_POINT ( 'NONE', #220 ) ;
#146 = ADVANCED_FACE ( 'NONE', ( #86, #229 ), #190, .T. ) ;
#147 = DIRECTION ( 'NONE',  ( 4.292138011278224936E-31, 1.000000000000000000, 1.229317185094960748E-16 ) ) ;
#148 = APPLICATION_CONTEXT ( 'configuration controlled 3d designs of mechanical parts and assemblies' ) ;
#149 = ORGANIZATION ( 'UNSPECIFIED', 'UNSPECIFIED', '' ) ;
#150 =( LENGTH_UNIT ( ) NAMED_UNIT ( * ) SI_UNIT ( .MILLI., .METRE. ) );
#151 = PRODUCT_DEFINITION ( 'UNKNOWN', '', #188, #114 ) ;
#152 = PERSON_AND_ORGANIZATION ( #177, #149 ) ;
#153 = PERSON_AND_ORGANIZATION ( #177, #149 ) ;
#154 = PERSON_AND_ORGANIZATION ( #177, #149 ) ;
#155 = FACE_OUTER_BOUND ( 'NONE', #109, .T. ) ;
#156 = AXIS2_PLACEMENT_3D ( 'NONE', #163, #211, #142 ) ;
#157 = ADVANCED_FACE ( 'NONE', ( #224, #166 ), #52, .T. ) ;
#158 = PERSON_AND_ORGANIZATION_ROLE ( 'design_owner' ) ;
#159 = CARTESIAN_POINT ( 'NONE',  ( 1.316288464743861212E-13, -4.616918432785527392E-15, 37.69999999999999574 ) ) ;
#160 = AXIS2_PLACEMENT_3D ( 'NONE', #44, #143, #162 ) ;
#161 = CC_DESIGN_PERSON_AND_ORGANIZATION_ASSIGNMENT ( #40, #117, ( #236 ) ) ;
#162 = DIRECTION ( 'NONE',  ( 4.392346669403733545E-31, 1.000000000000000000, 1.229317185094960748E-16 ) ) ;
#163 = CARTESIAN_POINT ( 'NONE',  ( 9.691501873883295545E-14, -3.412285115317932805E-15, 27.75756457886289752 ) ) ;
#164 = CONICAL_SURFACE ( 'NONE', #156, 4.999999999999999112, 0.1745329251994333919 ) ;
#165 = CARTESIAN_POINT ( 'NONE',  ( -1.561738404502173538E-30, 5.498731549610507404E-32, -4.472996567753788521E-16 ) ) ;
#166 = FACE_OUTER_BOUND ( 'NONE', #131, .T. ) ;
#167 = DIRECTION ( 'NONE',  ( -3.491481338843133355E-15, 1.224646799147354686E-16, -1.000000000000000000 ) ) ;
#168 = EDGE_LOOP ( 'NONE', ( #15 ) ) ;
#169 = DIRECTION ( 'NONE',  ( -3.491481338843133355E-15, 1.229317185094960748E-16, -1.000000000000000000 ) ) ;
#170 = EDGE_LOOP ( 'NONE', ( #90 ) ) ;
#171 = CC_DESIGN_PERSON_AND_ORGANIZATION_ASSIGNMENT ( #238, #193, ( #151 ) ) ;
#172 = DATE_AND_TIME ( #57, #210 ) ;
#173 = DATE_TIME_ROLE ( 'classification_date' ) ;
#174 = DATE_AND_TIME ( #39, #23 ) ;
#175 = PERSON_AND_ORGANIZATION ( #177, #149 ) ;
#176 = FACE_BOUND ( 'NONE', #89, .T. ) ;
#177 = PERSON ( 'UNSPECIFIED', 'UNSPECIFIED', 'UNSPECIFIED', ('UNSPECIFIED'), ('UNSPECIFIED'), ('UNSPECIFIED') ) ;
#178 = CIRCLE ( 'NONE', #130, 1.500000000000000000 ) ;
#179 = DIRECTION ( 'NONE',  ( 0.0000000000000000000, 1.000000000000000000, 0.0000000000000000000 ) ) ;
#180 = FACE_OUTER_BOUND ( 'NONE', #108, .T. ) ;
#181 = CC_DESIGN_PERSON_AND_ORGANIZATION_ASSIGNMENT ( #154, #100, ( #188 ) ) ;
#182 = CARTESIAN_POINT ( 'NONE',  ( 1.047444401652940007E-14, 1.124819836996395395E-32, 3.000000000000000000 ) ) ;
#183 = EDGE_LOOP ( 'NONE', ( #134 ) ) ;
#184 = PLANE ( 'NONE',  #198 ) ;
#185 = DIRECTION ( 'NONE',  ( 0.0000000000000000000, 1.000000000000000000, 0.0000000000000000000 ) ) ;
#186 = EDGE_CURVE ( 'NONE', #119, #119, #191, .T. ) ;
#187 = EDGE_LOOP ( 'NONE', ( #127 ) ) ;
#188 = PRODUCT_DEFINITION_FORMATION_WITH_SPECIFIED_SOURCE ( 'ANY', '', #74, .NOT_KNOWN. ) ;
#189 =( GEOMETRIC_REPRESENTATION_CONTEXT ( 3 ) GLOBAL_UNCERTAINTY_ASSIGNED_CONTEXT ( ( #204 ) ) GLOBAL_UNIT_ASSIGNED_CONTEXT ( ( #150, #237, #78 ) ) REPRESENTATION_CONTEXT ( 'NONE', 'WORKASPACE' ) );
#190 = CYLINDRICAL_SURFACE ( 'NONE', #14, 0.6500000000000000222 ) ;
#191 = CIRCLE ( 'NONE', #36, 1.500000000000000000 ) ;
#192 = APPROVAL_STATUS ( 'not_yet_approved' ) ;
#193 = PERSON_AND_ORGANIZATION_ROLE ( 'creator' ) ;
#194 = CALENDAR_DATE ( 2021, 9, 12 ) ;
#195 = MANIFOLD_SOLID_BREP ( 'Corps-Déplacer/Copier1[2]', #225 ) ;
#196 = CARTESIAN_POINT ( 'NONE',  ( 2.761090749702869474E-14, -1.500000000000000888, 7.908078210200970126 ) ) ;
#197 = CALENDAR_DATE ( 2021, 9, 12 ) ;
#198 = AXIS2_PLACEMENT_3D ( 'NONE', #92, #167, #6 ) ;
#199 = EDGE_LOOP ( 'NONE', ( #9 ) ) ;
#200 = DIRECTION ( 'NONE',  ( 0.0000000000000000000, -1.000000000000000000, 0.0000000000000000000 ) ) ;
#201 = AXIS2_PLACEMENT_3D ( 'NONE', #212, #69, #123 ) ;
#202 = CC_DESIGN_PERSON_AND_ORGANIZATION_ASSIGNMENT ( #152, #158, ( #74 ) ) ;
#203 = DIRECTION ( 'NONE',  ( -3.491481338843133355E-15, 1.224646799147354686E-16, -1.000000000000000000 ) ) ;
#204 = UNCERTAINTY_MEASURE_WITH_UNIT (LENGTH_MEASURE( 1.000000000000000082E-05 ), #150, 'distance_accuracy_value', 'NONE');
#205 = PERSON_AND_ORGANIZATION_ROLE ( 'creator' ) ;
#206 = CLOSED_SHELL ( 'NONE', ( #157, #128, #55, #70, #95, #67 ) ) ;
#207 = FACE_OUTER_BOUND ( 'NONE', #216, .T. ) ;
#208 = COORDINATED_UNIVERSAL_TIME_OFFSET ( 1, 0, .AHEAD. ) ;
#209 = SECURITY_CLASSIFICATION_LEVEL ( 'unclassified' ) ;
#210 = LOCAL_TIME ( 10, 53, 54.00000000000000000, #226 ) ;
#211 = DIRECTION ( 'NONE',  ( 3.491481338843133355E-15, -1.229317185094960748E-16, 1.000000000000000000 ) ) ;
#212 = CARTESIAN_POINT ( 'NONE',  ( 1.326762908760390170E-13, -4.653657836759946674E-15, 37.99999999999999289 ) ) ;
#213 = AXIS2_PLACEMENT_3D ( 'NONE', #159, #26, #179 ) ;
#214 = APPLICATION_CONTEXT ( 'configuration controlled 3d designs of mechanical parts and assemblies' ) ;
#215 = DIRECTION ( 'NONE',  ( 3.491481338843133355E-15, -1.224646799147354686E-16, 1.000000000000000000 ) ) ;
#216 = EDGE_LOOP ( 'NONE', ( #232 ) ) ;
#217 = EDGE_CURVE ( 'NONE', #75, #75, #138, .T. ) ;
#218 = CARTESIAN_POINT ( 'NONE',  ( 0.0000000000000000000, 0.0000000000000000000, 0.0000000000000000000 ) ) ;
#219 = APPROVAL_PERSON_ORGANIZATION ( #153, #3, #139 ) ;
#220 = CARTESIAN_POINT ( 'NONE',  ( 1.047444401652940007E-14, 0.6499999999999995781, 3.000000000000000000 ) ) ;
#221 = DIRECTION ( 'NONE',  ( -3.491481338843133355E-15, 1.229317185094960748E-16, -1.000000000000000000 ) ) ;
#222 = CC_DESIGN_PERSON_AND_ORGANIZATION_ASSIGNMENT ( #76, #205, ( #188 ) ) ;
#223 = CARTESIAN_POINT ( 'NONE',  ( 1.316288464743861212E-13, -4.616918432785527392E-15, 37.69999999999999574 ) ) ;
#224 = FACE_OUTER_BOUND ( 'NONE', #187, .T. ) ;
#225 = CLOSED_SHELL ( 'NONE', ( #118, #146, #230 ) ) ;
#226 = COORDINATED_UNIVERSAL_TIME_OFFSET ( 1, 0, .AHEAD. ) ;
#227 = DATE_AND_TIME ( #194, #104 ) ;
#228 = CC_DESIGN_APPROVAL ( #38, ( #236 ) ) ;
#229 = FACE_OUTER_BOUND ( 'NONE', #168, .T. ) ;
#230 = ADVANCED_FACE ( 'NONE', ( #8 ), #184, .T. ) ;
#231 = AXIS2_PLACEMENT_3D ( 'NONE', #136, #98, #77 ) ;
#232 = ORIENTED_EDGE ( 'NONE', *, *, #217, .F. ) ;
#233 = VERTEX_POINT ( 'NONE', #72 ) ;
#234 = ORIENTED_EDGE ( 'NONE', *, *, #217, .T. ) ;
#235 = CARTESIAN_POINT ( 'NONE',  ( 1.326762908760390170E-13, 1.199999999999995515, 37.99999999999999289 ) ) ;
#236 = SECURITY_CLASSIFICATION ( '', '', #209 ) ;
#237 =( NAMED_UNIT ( * ) PLANE_ANGLE_UNIT ( ) SI_UNIT ( $, .RADIAN. ) );
#238 = PERSON_AND_ORGANIZATION ( #177, #149 ) ;
#239 = CC_DESIGN_DATE_AND_TIME_ASSIGNMENT ( #79, #84, ( #151 ) ) ;
#240 = APPROVAL_DATE_TIME ( #174, #20 ) ;
#241 = EDGE_CURVE ( 'NONE', #37, #37, #85, .T. ) ;
#242 = APPROVAL_STATUS ( 'not_yet_approved' ) ;
#243 = CARTESIAN_POINT ( 'NONE',  ( 1.108073338837760724E-14, -3.901420244251263375E-16, 3.173648177666930970 ) ) ;
ENDSEC;
END-ISO-10303-21;
