ISO-10303-21;
HEADER;
FILE_DESCRIPTION (( 'STEP AP203' ),
    '1' );
FILE_NAME ('378222.step',
    '2021-12-09T09:53:53',
    ( '' ),
    ( '' ),
    'SwSTEP 2.0',
    'SolidWorks 2019',
    '' );
FILE_SCHEMA (( 'CONFIG_CONTROL_DESIGN' ));
ENDSEC;

DATA;
#1 = CARTESIAN_POINT ( 'NONE',  ( 2.860096622905445601E-14, -1.007012665499367966E-15, 8.191642301181852659 ) ) ;
#2 =( GEOMETRIC_REPRESENTATION_CONTEXT ( 3 ) GLOBAL_UNCERTAINTY_ASSIGNED_CONTEXT ( ( #73 ) ) GLOBAL_UNIT_ASSIGNED_CONTEXT ( ( #180, #179, #41 ) ) REPRESENTATION_CONTEXT ( 'NONE', 'WORKASPACE' ) );
#3 = APPROVAL_STATUS ( 'not_yet_approved' ) ;
#4 = APPROVAL_ROLE ( '' ) ;
#5 = FACE_BOUND ( 'NONE', #30, .T. ) ;
#6 = CARTESIAN_POINT ( 'NONE',  ( 0.0000000000000000000, 0.0000000000000000000, 0.0000000000000000000 ) ) ;
#7 = CIRCLE ( 'NONE', #145, 0.6151922469877916244 ) ;
#8 = DIRECTION ( 'NONE',  ( -3.491481338843133355E-15, 1.229317185094960748E-16, -1.000000000000000000 ) ) ;
#9 = CALENDAR_DATE ( 2021, 9, 12 ) ;
#10 = ORIENTED_EDGE ( 'NONE', *, *, #193, .F. ) ;
#11 = DIRECTION ( 'NONE',  ( 0.0000000000000000000, 1.000000000000000000, 0.0000000000000000000 ) ) ;
#12 = PRODUCT_DEFINITION_SHAPE ( 'NONE', 'NONE',  #37 ) ;
#13 = ORIENTED_EDGE ( 'NONE', *, *, #193, .T. ) ;
#14 = AXIS2_PLACEMENT_3D ( 'NONE', #235, #124, #141 ) ;
#15 = EDGE_CURVE ( 'NONE', #238, #238, #186, .T. ) ;
#16 = CARTESIAN_POINT ( 'NONE',  ( 1.047444401652940007E-14, -3.687951555284882245E-16, 3.000000000000000000 ) ) ;
#17 = CARTESIAN_POINT ( 'NONE',  ( 1.326762908760390170E-13, 1.199999999999995515, 37.99999999999999289 ) ) ;
#18 = EDGE_LOOP ( 'NONE', ( #53 ) ) ;
#19 = CARTESIAN_POINT ( 'NONE',  ( 1.047444401652940007E-14, 0.5999999999999994227, 3.000000000000000000 ) ) ;
#20 = FACE_OUTER_BOUND ( 'NONE', #50, .T. ) ;
#21 = ADVANCED_FACE ( 'NONE', ( #20, #57 ), #43, .T. ) ;
#22 = CIRCLE ( 'NONE', #34, 0.5999999999999998668 ) ;
#23 = MANIFOLD_SOLID_BREP ( 'Corps-Déplacer/Copier1[2]', #63 ) ;
#24 = APPROVAL_PERSON_ORGANIZATION ( #123, #74, #234 ) ;
#25 = APPROVAL_DATE_TIME ( #229, #242 ) ;
#26 = PERSON_AND_ORGANIZATION ( #128, #82 ) ;
#27 = ADVANCED_FACE ( 'NONE', ( #80 ), #122, .F. ) ;
#28 = CARTESIAN_POINT ( 'NONE',  ( 1.047444401652940007E-14, 1.124819836996395395E-32, 3.000000000000000000 ) ) ;
#29 = CIRCLE ( 'NONE', #201, 1.200000000000000178 ) ;
#30 = EDGE_LOOP ( 'NONE', ( #175 ) ) ;
#31 = DIRECTION ( 'NONE',  ( -3.491481338843133355E-15, 1.229317185094960748E-16, -1.000000000000000000 ) ) ;
#32 = ORIENTED_EDGE ( 'NONE', *, *, #83, .T. ) ;
#33 = DIRECTION ( 'NONE',  ( 0.0000000000000000000, 1.000000000000000000, 0.0000000000000000000 ) ) ;
#34 = AXIS2_PLACEMENT_3D ( 'NONE', #155, #31, #92 ) ;
#35 = CARTESIAN_POINT ( 'NONE',  ( 1.047444401652940007E-14, 0.5999999999999994227, 3.000000000000000000 ) ) ;
#36 = VERTEX_POINT ( 'NONE', #97 ) ;
#37 = PRODUCT_DEFINITION ( 'UNKNOWN', '', #189, #212 ) ;
#38 = DIRECTION ( 'NONE',  ( -3.491481338843133355E-15, 1.224646799147354686E-16, -1.000000000000000000 ) ) ;
#39 = ADVANCED_FACE ( 'NONE', ( #65 ), #62, .F. ) ;
#40 = DIRECTION ( 'NONE',  ( -3.491481338843133355E-15, 1.229317185094960748E-16, -1.000000000000000000 ) ) ;
#41 =( NAMED_UNIT ( * ) SI_UNIT ( $, .STERADIAN. ) SOLID_ANGLE_UNIT ( ) );
#42 = DIRECTION ( 'NONE',  ( 3.491481338843133355E-15, -1.229317185094960748E-16, 1.000000000000000000 ) ) ;
#43 = CYLINDRICAL_SURFACE ( 'NONE', #184, 1.500000000000000000 ) ;
#44 = CALENDAR_DATE ( 2021, 9, 12 ) ;
#45 = CIRCLE ( 'NONE', #142, 1.500000000000000000 ) ;
#46 = PERSON_AND_ORGANIZATION_ROLE ( 'creator' ) ;
#47 = ADVANCED_FACE ( 'NONE', ( #105, #5 ), #77, .T. ) ;
#48 = DATE_AND_TIME ( #9, #90 ) ;
#49 = AXIS2_PLACEMENT_3D ( 'NONE', #125, #187, #11 ) ;
#50 = EDGE_LOOP ( 'NONE', ( #99 ) ) ;
#51 = DIRECTION ( 'NONE',  ( -3.491481338843133355E-15, 1.224646799147354686E-16, -1.000000000000000000 ) ) ;
#52 = APPROVAL_DATE_TIME ( #48, #74 ) ;
#53 = ORIENTED_EDGE ( 'NONE', *, *, #15, .T. ) ;
#54 = DIRECTION ( 'NONE',  ( 0.0000000000000000000, 1.000000000000000000, 0.0000000000000000000 ) ) ;
#55 = LOCAL_TIME ( 10, 53, 53.00000000000000000, #223 ) ;
#56 = PRODUCT ( '378222', '378222', '', ( #102 ) ) ;
#57 = FACE_OUTER_BOUND ( 'NONE', #75, .T. ) ;
#58 = CARTESIAN_POINT ( 'NONE',  ( -3.206873584422722458E-31, 1.124819836996396080E-32, -9.184850993605159531E-17 ) ) ;
#59 = DIRECTION ( 'NONE',  ( 4.275831445896963861E-31, 1.000000000000000000, 1.224646799147354686E-16 ) ) ;
#60 = DIRECTION ( 'NONE',  ( -3.491481338843133355E-15, 1.229317185094960748E-16, -1.000000000000000000 ) ) ;
#61 = CALENDAR_DATE ( 2021, 9, 12 ) ;
#62 = PLANE ( 'NONE',  #225 ) ;
#63 = CLOSED_SHELL ( 'NONE', ( #96, #239, #221 ) ) ;
#64 = CALENDAR_DATE ( 2021, 9, 12 ) ;
#65 = FACE_OUTER_BOUND ( 'NONE', #114, .T. ) ;
#66 = DIRECTION ( 'NONE',  ( 4.275831445896963861E-31, 1.000000000000000000, 1.224646799147354686E-16 ) ) ;
#67 = DIRECTION ( 'NONE',  ( 1.000000000000000000, 0.0000000000000000000, 0.0000000000000000000 ) ) ;
#68 = CIRCLE ( 'NONE', #49, 0.5999999999999997558 ) ;
#69 = PERSON_AND_ORGANIZATION ( #128, #82 ) ;
#70 = CC_DESIGN_PERSON_AND_ORGANIZATION_ASSIGNMENT ( #69, #87, ( #189 ) ) ;
#71 = LOCAL_TIME ( 10, 53, 53.00000000000000000, #199 ) ;
#72 = FACE_BOUND ( 'NONE', #126, .T. ) ;
#73 = UNCERTAINTY_MEASURE_WITH_UNIT (LENGTH_MEASURE( 1.000000000000000082E-05 ), #180, 'distance_accuracy_value', 'NONE');
#74 = APPROVAL ( #160, 'UNSPECIFIED' ) ;
#75 = EDGE_LOOP ( 'NONE', ( #240 ) ) ;
#76 = VERTEX_POINT ( 'NONE', #181 ) ;
#77 = CONICAL_SURFACE ( 'NONE', #230, 4.999999999999999112, 0.1745329251994333364 ) ;
#78 = EDGE_LOOP ( 'NONE', ( #177 ) ) ;
#79 = CARTESIAN_POINT ( 'NONE',  ( 1.108073338837760724E-14, 0.6151922469877911803, 3.173648177666930970 ) ) ;
#80 = FACE_OUTER_BOUND ( 'NONE', #18, .T. ) ;
#81 = DIRECTION ( 'NONE',  ( 4.292138011278225812E-31, 1.000000000000000000, 1.229317185094960748E-16 ) ) ;
#82 = ORGANIZATION ( 'UNSPECIFIED', 'UNSPECIFIED', '' ) ;
#83 = EDGE_CURVE ( 'NONE', #76, #76, #116, .T. ) ;
#84 = CC_DESIGN_SECURITY_CLASSIFICATION ( #154, ( #189 ) ) ;
#85 = PERSON_AND_ORGANIZATION ( #128, #82 ) ;
#86 = COORDINATED_UNIVERSAL_TIME_OFFSET ( 1, 0, .AHEAD. ) ;
#87 = PERSON_AND_ORGANIZATION_ROLE ( 'design_supplier' ) ;
#88 = CARTESIAN_POINT ( 'NONE',  ( 9.790507747085876090E-14, -3.447144136329796520E-15, 28.04112866984378627 ) ) ;
#89 = APPLICATION_PROTOCOL_DEFINITION ( 'international standard', 'config_control_design', 1994, #232 ) ;
#90 = LOCAL_TIME ( 10, 53, 53.00000000000000000, #170 ) ;
#91 = SHAPE_DEFINITION_REPRESENTATION ( #12, #208 ) ;
#92 = DIRECTION ( 'NONE',  ( 4.292138011278224060E-31, 1.000000000000000000, 1.229317185094960995E-16 ) ) ;
#93 = AXIS2_PLACEMENT_3D ( 'NONE', #213, #8, #143 ) ;
#94 = EDGE_LOOP ( 'NONE', ( #109 ) ) ;
#95 = FACE_OUTER_BOUND ( 'NONE', #139, .T. ) ;
#96 = ADVANCED_FACE ( 'NONE', ( #159 ), #156, .T. ) ;
#97 = CARTESIAN_POINT ( 'NONE',  ( 1.316288464743861212E-13, 1.499999999999995559, 37.69999999999999574 ) ) ;
#98 = TOROIDAL_SURFACE ( 'NONE', #93, 1.599999999999999867, 1.000000000000000222 ) ;
#99 = ORIENTED_EDGE ( 'NONE', *, *, #83, .F. ) ;
#100 = EDGE_LOOP ( 'NONE', ( #194 ) ) ;
#101 = EDGE_LOOP ( 'NONE', ( #134 ) ) ;
#102 = MECHANICAL_CONTEXT ( 'NONE', #215, 'mechanical' ) ;
#103 = CC_DESIGN_APPROVAL ( #211, ( #189 ) ) ;
#104 = PERSON_AND_ORGANIZATION_ROLE ( 'creator' ) ;
#105 = FACE_OUTER_BOUND ( 'NONE', #205, .T. ) ;
#106 = CC_DESIGN_PERSON_AND_ORGANIZATION_ASSIGNMENT ( #85, #104, ( #189 ) ) ;
#107 = DATE_AND_TIME ( #44, #71 ) ;
#108 = DATE_TIME_ROLE ( 'classification_date' ) ;
#109 = ORIENTED_EDGE ( 'NONE', *, *, #133, .F. ) ;
#110 = AXIS2_PLACEMENT_3D ( 'NONE', #6, #168, #67 ) ;
#111 = DIRECTION ( 'NONE',  ( 0.0000000000000000000, 1.000000000000000000, 0.0000000000000000000 ) ) ;
#112 = AXIS2_PLACEMENT_3D ( 'NONE', #171, #209, #54 ) ;
#113 = CC_DESIGN_DATE_AND_TIME_ASSIGNMENT ( #148, #152, ( #37 ) ) ;
#114 = EDGE_LOOP ( 'NONE', ( #10 ) ) ;
#115 = APPLICATION_PROTOCOL_DEFINITION ( 'international standard', 'config_control_design', 1994, #215 ) ;
#116 = CIRCLE ( 'NONE', #120, 1.500000000000000000 ) ;
#117 = DIRECTION ( 'NONE',  ( 0.0000000000000000000, -1.000000000000000000, 0.0000000000000000000 ) ) ;
#118 = APPROVAL_DATE_TIME ( #107, #211 ) ;
#119 = EDGE_CURVE ( 'NONE', #36, #36, #45, .T. ) ;
#120 = AXIS2_PLACEMENT_3D ( 'NONE', #1, #190, #172 ) ;
#121 = COORDINATED_UNIVERSAL_TIME_OFFSET ( 1, 0, .AHEAD. ) ;
#122 = PLANE ( 'NONE',  #207 ) ;
#123 = PERSON_AND_ORGANIZATION ( #128, #82 ) ;
#124 = DIRECTION ( 'NONE',  ( 3.491481338843133355E-15, -1.224646799147354686E-16, 1.000000000000000000 ) ) ;
#125 = CARTESIAN_POINT ( 'NONE',  ( 1.047444401652940007E-14, -3.687951555284882245E-16, 3.000000000000000000 ) ) ;
#126 = EDGE_LOOP ( 'NONE', ( #13 ) ) ;
#127 = FACE_OUTER_BOUND ( 'NONE', #237, .T. ) ;
#128 = PERSON ( 'UNSPECIFIED', 'UNSPECIFIED', 'UNSPECIFIED', ('UNSPECIFIED'), ('UNSPECIFIED'), ('UNSPECIFIED') ) ;
#129 = AXIS2_PLACEMENT_3D ( 'NONE', #58, #38, #59 ) ;
#130 = VERTEX_POINT ( 'NONE', #79 ) ;
#131 = CC_DESIGN_APPROVAL ( #242, ( #37 ) ) ;
#132 = CARTESIAN_POINT ( 'NONE',  ( -1.282749433769089158E-30, 0.5999999999999998668, -3.673940397442063812E-16 ) ) ;
#133 = EDGE_CURVE ( 'NONE', #163, #163, #68, .T. ) ;
#134 = ORIENTED_EDGE ( 'NONE', *, *, #133, .T. ) ;
#135 = FACE_OUTER_BOUND ( 'NONE', #101, .T. ) ;
#136 = CARTESIAN_POINT ( 'NONE',  ( 1.326762908760390170E-13, 2.197316402903955485E-13, 37.99999999999999289 ) ) ;
#137 = PERSON_AND_ORGANIZATION ( #128, #82 ) ;
#138 = DIRECTION ( 'NONE',  ( -3.491481338843133355E-15, 1.224646799147354686E-16, -1.000000000000000000 ) ) ;
#139 = EDGE_LOOP ( 'NONE', ( #216 ) ) ;
#140 = FACE_OUTER_BOUND ( 'NONE', #100, .T. ) ;
#141 = DIRECTION ( 'NONE',  ( -4.275831445896963861E-31, -1.000000000000000000, -1.224646799147354686E-16 ) ) ;
#142 = AXIS2_PLACEMENT_3D ( 'NONE', #206, #51, #33 ) ;
#143 = DIRECTION ( 'NONE',  ( 4.394273758983069541E-31, 1.000000000000000000, 1.229317185094960748E-16 ) ) ;
#144 = PLANE ( 'NONE',  #129 ) ;
#145 = AXIS2_PLACEMENT_3D ( 'NONE', #217, #60, #111 ) ;
#146 = CC_DESIGN_DATE_AND_TIME_ASSIGNMENT ( #203, #108, ( #154 ) ) ;
#147 = FACE_OUTER_BOUND ( 'NONE', #219, .T. ) ;
#148 = DATE_AND_TIME ( #151, #236 ) ;
#149 = AXIS2_PLACEMENT_3D ( 'NONE', #16, #40, #161 ) ;
#150 = CC_DESIGN_PERSON_AND_ORGANIZATION_ASSIGNMENT ( #183, #46, ( #37 ) ) ;
#151 = CALENDAR_DATE ( 2021, 9, 12 ) ;
#152 = DATE_TIME_ROLE ( 'creation_date' ) ;
#153 = EDGE_CURVE ( 'NONE', #165, #165, #22, .T. ) ;
#154 = SECURITY_CLASSIFICATION ( '', '', #169 ) ;
#155 = CARTESIAN_POINT ( 'NONE',  ( -1.540277714445782567E-30, 5.423170512532018910E-32, -4.411530708499040656E-16 ) ) ;
#156 = PLANE ( 'NONE',  #14 ) ;
#157 = CARTESIAN_POINT ( 'NONE',  ( 1.326762908760390170E-13, -4.653657836759946674E-15, 37.99999999999999289 ) ) ;
#158 = APPROVAL_PERSON_ORGANIZATION ( #26, #211, #227 ) ;
#159 = FACE_OUTER_BOUND ( 'NONE', #94, .T. ) ;
#160 = APPROVAL_STATUS ( 'not_yet_approved' ) ;
#161 = DIRECTION ( 'NONE',  ( 0.0000000000000000000, 1.000000000000000000, 0.0000000000000000000 ) ) ;
#162 = CC_DESIGN_PERSON_AND_ORGANIZATION_ASSIGNMENT ( #195, #243, ( #154 ) ) ;
#163 = VERTEX_POINT ( 'NONE', #19 ) ;
#164 = VERTEX_POINT ( 'NONE', #17 ) ;
#165 = VERTEX_POINT ( 'NONE', #132 ) ;
#166 = DIRECTION ( 'NONE',  ( 3.491481338843133355E-15, -1.224646799147354686E-16, 1.000000000000000000 ) ) ;
#167 = AXIS2_PLACEMENT_3D ( 'NONE', #214, #220, #81 ) ;
#168 = DIRECTION ( 'NONE',  ( 0.0000000000000000000, 0.0000000000000000000, 1.000000000000000000 ) ) ;
#169 = SECURITY_CLASSIFICATION_LEVEL ( 'unclassified' ) ;
#170 = COORDINATED_UNIVERSAL_TIME_OFFSET ( 1, 0, .AHEAD. ) ;
#171 = CARTESIAN_POINT ( 'NONE',  ( 1.316288464743861212E-13, -4.616918432785527392E-15, 37.69999999999999574 ) ) ;
#172 = DIRECTION ( 'NONE',  ( 0.0000000000000000000, -1.000000000000000000, 0.0000000000000000000 ) ) ;
#173 = CC_DESIGN_PERSON_AND_ORGANIZATION_ASSIGNMENT ( #137, #185, ( #56 ) ) ;
#174 = LOCAL_TIME ( 10, 53, 53.00000000000000000, #86 ) ;
#175 = ORIENTED_EDGE ( 'NONE', *, *, #231, .F. ) ;
#176 = DIRECTION ( 'NONE',  ( 0.0000000000000000000, 1.000000000000000000, 0.0000000000000000000 ) ) ;
#177 = ORIENTED_EDGE ( 'NONE', *, *, #15, .F. ) ;
#178 = CONICAL_SURFACE ( 'NONE', #112, 1.500000000000000000, 0.7853981633974569387 ) ;
#179 =( NAMED_UNIT ( * ) PLANE_ANGLE_UNIT ( ) SI_UNIT ( $, .RADIAN. ) );
#180 =( LENGTH_UNIT ( ) NAMED_UNIT ( * ) SI_UNIT ( .MILLI., .METRE. ) );
#181 = CARTESIAN_POINT ( 'NONE',  ( 2.860096622905445601E-14, -1.500000000000001110, 8.191642301181852659 ) ) ;
#182 = MANIFOLD_SOLID_BREP ( 'Corps-Déplacer/Copier1[1]', #192 ) ;
#183 = PERSON_AND_ORGANIZATION ( #128, #82 ) ;
#184 = AXIS2_PLACEMENT_3D ( 'NONE', #226, #222, #66 ) ;
#185 = PERSON_AND_ORGANIZATION_ROLE ( 'design_owner' ) ;
#186 = CIRCLE ( 'NONE', #149, 0.5999999999999997558 ) ;
#187 = DIRECTION ( 'NONE',  ( -3.491481338843133355E-15, 1.229317185094960748E-16, -1.000000000000000000 ) ) ;
#188 = ORIENTED_EDGE ( 'NONE', *, *, #153, .F. ) ;
#189 = PRODUCT_DEFINITION_FORMATION_WITH_SPECIFIED_SOURCE ( 'ANY', '', #56, .NOT_KNOWN. ) ;
#190 = DIRECTION ( 'NONE',  ( -3.491481338843133355E-15, 1.229317185094960748E-16, -1.000000000000000000 ) ) ;
#191 = ORIENTED_EDGE ( 'NONE', *, *, #231, .T. ) ;
#192 = CLOSED_SHELL ( 'NONE', ( #21, #202, #39, #204, #47, #27 ) ) ;
#193 = EDGE_CURVE ( 'NONE', #164, #164, #29, .T. ) ;
#194 = ORIENTED_EDGE ( 'NONE', *, *, #119, .F. ) ;
#195 = PERSON_AND_ORGANIZATION ( #128, #82 ) ;
#196 = APPROVAL_PERSON_ORGANIZATION ( #200, #242, #4 ) ;
#197 = DIRECTION ( 'NONE',  ( 4.275831445896963861E-31, 1.000000000000000000, 1.224646799147354686E-16 ) ) ;
#198 = APPROVAL_STATUS ( 'not_yet_approved' ) ;
#199 = COORDINATED_UNIVERSAL_TIME_OFFSET ( 1, 0, .AHEAD. ) ;
#200 = PERSON_AND_ORGANIZATION ( #128, #82 ) ;
#201 = AXIS2_PLACEMENT_3D ( 'NONE', #157, #233, #176 ) ;
#202 = ADVANCED_FACE ( 'NONE', ( #72, #140 ), #178, .T. ) ;
#203 = DATE_AND_TIME ( #61, #55 ) ;
#204 = ADVANCED_FACE ( 'NONE', ( #210, #127 ), #98, .F. ) ;
#205 = EDGE_LOOP ( 'NONE', ( #32 ) ) ;
#206 = CARTESIAN_POINT ( 'NONE',  ( 1.316288464743861212E-13, -4.616918432785527392E-15, 37.69999999999999574 ) ) ;
#207 = AXIS2_PLACEMENT_3D ( 'NONE', #28, #166, #224 ) ;
#208 = ADVANCED_BREP_SHAPE_REPRESENTATION ( '378222', ( #182, #23, #110 ), #2 ) ;
#209 = DIRECTION ( 'NONE',  ( -3.491481338843133355E-15, 1.224646799147354686E-16, -1.000000000000000000 ) ) ;
#210 = FACE_OUTER_BOUND ( 'NONE', #78, .T. ) ;
#211 = APPROVAL ( #3, 'UNSPECIFIED' ) ;
#212 = DESIGN_CONTEXT ( 'detailed design', #232, 'design' ) ;
#213 = CARTESIAN_POINT ( 'NONE',  ( 1.047444401652940007E-14, -4.336808689942017736E-16, 3.000000000000000000 ) ) ;
#214 = CARTESIAN_POINT ( 'NONE',  ( 0.0000000000000000000, 0.0000000000000000000, 0.0000000000000000000 ) ) ;
#215 = APPLICATION_CONTEXT ( 'configuration controlled 3d designs of mechanical parts and assemblies' ) ;
#216 = ORIENTED_EDGE ( 'NONE', *, *, #153, .T. ) ;
#217 = CARTESIAN_POINT ( 'NONE',  ( 1.108073338837760724E-14, -3.901420244251263375E-16, 3.173648177666930970 ) ) ;
#218 = CC_DESIGN_APPROVAL ( #74, ( #154 ) ) ;
#219 = EDGE_LOOP ( 'NONE', ( #188 ) ) ;
#220 = DIRECTION ( 'NONE',  ( -3.491481338843133355E-15, 1.229317185094960748E-16, -1.000000000000000000 ) ) ;
#221 = ADVANCED_FACE ( 'NONE', ( #95 ), #144, .T. ) ;
#222 = DIRECTION ( 'NONE',  ( -3.491481338843133355E-15, 1.224646799147354686E-16, -1.000000000000000000 ) ) ;
#223 = COORDINATED_UNIVERSAL_TIME_OFFSET ( 1, 0, .AHEAD. ) ;
#224 = DIRECTION ( 'NONE',  ( -4.275831445896963861E-31, -1.000000000000000000, -1.224646799147354686E-16 ) ) ;
#225 = AXIS2_PLACEMENT_3D ( 'NONE', #136, #138, #197 ) ;
#226 = CARTESIAN_POINT ( 'NONE',  ( 0.0000000000000000000, 0.0000000000000000000, 0.0000000000000000000 ) ) ;
#227 = APPROVAL_ROLE ( '' ) ;
#228 = PRODUCT_RELATED_PRODUCT_CATEGORY ( 'detail', '', ( #56 ) ) ;
#229 = DATE_AND_TIME ( #64, #174 ) ;
#230 = AXIS2_PLACEMENT_3D ( 'NONE', #88, #42, #117 ) ;
#231 = EDGE_CURVE ( 'NONE', #130, #130, #7, .T. ) ;
#232 = APPLICATION_CONTEXT ( 'configuration controlled 3d designs of mechanical parts and assemblies' ) ;
#233 = DIRECTION ( 'NONE',  ( -3.491481338843133355E-15, 1.224646799147354686E-16, -1.000000000000000000 ) ) ;
#234 = APPROVAL_ROLE ( '' ) ;
#235 = CARTESIAN_POINT ( 'NONE',  ( 1.047444401652940007E-14, 1.124819836996395395E-32, 3.000000000000000000 ) ) ;
#236 = LOCAL_TIME ( 10, 53, 53.00000000000000000, #121 ) ;
#237 = EDGE_LOOP ( 'NONE', ( #191 ) ) ;
#238 = VERTEX_POINT ( 'NONE', #35 ) ;
#239 = ADVANCED_FACE ( 'NONE', ( #147, #135 ), #241, .T. ) ;
#240 = ORIENTED_EDGE ( 'NONE', *, *, #119, .T. ) ;
#241 = CYLINDRICAL_SURFACE ( 'NONE', #167, 0.5999999999999998668 ) ;
#242 = APPROVAL ( #198, 'UNSPECIFIED' ) ;
#243 = PERSON_AND_ORGANIZATION_ROLE ( 'classification_officer' ) ;
ENDSEC;
END-ISO-10303-21;
