ISO-10303-21;
HEADER;
FILE_DESCRIPTION (( 'STEP AP203' ),
    '1' );
FILE_NAME ('378221.step',
    '2021-12-09T09:53:52',
    ( '' ),
    ( '' ),
    'SwSTEP 2.0',
    'SolidWorks 2019',
    '' );
FILE_SCHEMA (( 'CONFIG_CONTROL_DESIGN' ));
ENDSEC;

DATA;
#1 = ORIENTED_EDGE ( 'NONE', *, *, #61, .F. ) ;
#2 = EDGE_CURVE ( 'NONE', #180, #180, #138, .T. ) ;
#3 = DIRECTION ( 'NONE',  ( -3.491481338843133355E-15, 1.224646799147354686E-16, -1.000000000000000000 ) ) ;
#4 = DIRECTION ( 'NONE',  ( 0.0000000000000000000, -1.000000000000000000, 0.0000000000000000000 ) ) ;
#5 = PLANE ( 'NONE',  #12 ) ;
#6 = DIRECTION ( 'NONE',  ( -3.491481338843133355E-15, 1.229317185094960748E-16, -1.000000000000000000 ) ) ;
#7 = DIRECTION ( 'NONE',  ( 3.491481338843133355E-15, -1.224646799147354686E-16, 1.000000000000000000 ) ) ;
#8 = ADVANCED_FACE ( 'NONE', ( #152, #139 ), #189, .T. ) ;
#9 = CARTESIAN_POINT ( 'NONE',  ( 0.0000000000000000000, 0.0000000000000000000, 0.0000000000000000000 ) ) ;
#10 = APPLICATION_PROTOCOL_DEFINITION ( 'international standard', 'config_control_design', 1994, #113 ) ;
#11 = CYLINDRICAL_SURFACE ( 'NONE', #145, 0.5499999999999999334 ) ;
#12 = AXIS2_PLACEMENT_3D ( 'NONE', #23, #135, #233 ) ;
#13 = COORDINATED_UNIVERSAL_TIME_OFFSET ( 1, 0, .AHEAD. ) ;
#14 = PRODUCT_DEFINITION_FORMATION_WITH_SPECIFIED_SOURCE ( 'ANY', '', #126, .NOT_KNOWN. ) ;
#15 = EDGE_CURVE ( 'NONE', #239, #239, #124, .T. ) ;
#16 = PERSON_AND_ORGANIZATION ( #119, #178 ) ;
#17 = ORIENTED_EDGE ( 'NONE', *, *, #75, .F. ) ;
#18 = TOROIDAL_SURFACE ( 'NONE', #134, 1.550000000000000266, 1.000000000000000444 ) ;
#19 = MANIFOLD_SOLID_BREP ( 'Corps-Déplacer/Copier1[2]', #42 ) ;
#20 = ORIENTED_EDGE ( 'NONE', *, *, #43, .T. ) ;
#21 = CARTESIAN_POINT ( 'NONE',  ( -3.206873584422722458E-31, 1.124819836996396080E-32, -9.184850993605159531E-17 ) ) ;
#22 = DIRECTION ( 'NONE',  ( 4.292138011278224060E-31, 1.000000000000000000, 1.229317185094960995E-16 ) ) ;
#23 = CARTESIAN_POINT ( 'NONE',  ( 1.326762908760390170E-13, 2.197316402903955485E-13, 37.99999999999999289 ) ) ;
#24 = FACE_OUTER_BOUND ( 'NONE', #173, .T. ) ;
#25 = CC_DESIGN_PERSON_AND_ORGANIZATION_ASSIGNMENT ( #210, #71, ( #14 ) ) ;
#26 = VERTEX_POINT ( 'NONE', #123 ) ;
#27 = CC_DESIGN_APPROVAL ( #205, ( #69 ) ) ;
#28 = CARTESIAN_POINT ( 'NONE',  ( 1.047444401652940007E-14, 0.5499999999999994893, 3.000000000000000000 ) ) ;
#29 =( NAMED_UNIT ( * ) SI_UNIT ( $, .STERADIAN. ) SOLID_ANGLE_UNIT ( ) );
#30 = DIRECTION ( 'NONE',  ( -3.491481338843133355E-15, 1.229317185094960748E-16, -1.000000000000000000 ) ) ;
#31 = AXIS2_PLACEMENT_3D ( 'NONE', #100, #39, #4 ) ;
#32 = PERSON_AND_ORGANIZATION ( #119, #178 ) ;
#33 = ADVANCED_FACE ( 'NONE', ( #155, #24 ), #82, .T. ) ;
#34 = DATE_TIME_ROLE ( 'creation_date' ) ;
#35 = CALENDAR_DATE ( 2021, 9, 12 ) ;
#36 = ORIENTED_EDGE ( 'NONE', *, *, #15, .F. ) ;
#37 = AXIS2_PLACEMENT_3D ( 'NONE', #99, #63, #174 ) ;
#38 = SECURITY_CLASSIFICATION_LEVEL ( 'unclassified' ) ;
#39 = DIRECTION ( 'NONE',  ( -3.491481338843133355E-15, 1.229317185094960748E-16, -1.000000000000000000 ) ) ;
#40 = DIRECTION ( 'NONE',  ( 0.0000000000000000000, 1.000000000000000000, 0.0000000000000000000 ) ) ;
#41 = DIRECTION ( 'NONE',  ( 0.0000000000000000000, 1.000000000000000000, 0.0000000000000000000 ) ) ;
#42 = CLOSED_SHELL ( 'NONE', ( #176, #238, #111 ) ) ;
#43 = EDGE_CURVE ( 'NONE', #125, #125, #181, .T. ) ;
#44 = CARTESIAN_POINT ( 'NONE',  ( 1.316288464743861212E-13, -4.616918432785527392E-15, 37.69999999999999574 ) ) ;
#45 = DIRECTION ( 'NONE',  ( 4.275831445896963861E-31, 1.000000000000000000, 1.224646799147354686E-16 ) ) ;
#46 = PERSON_AND_ORGANIZATION ( #119, #178 ) ;
#47 = VERTEX_POINT ( 'NONE', #199 ) ;
#48 =( NAMED_UNIT ( * ) PLANE_ANGLE_UNIT ( ) SI_UNIT ( $, .RADIAN. ) );
#49 = FACE_OUTER_BOUND ( 'NONE', #218, .T. ) ;
#50 = CALENDAR_DATE ( 2021, 9, 12 ) ;
#51 = APPROVAL ( #206, 'UNSPECIFIED' ) ;
#52 = PERSON_AND_ORGANIZATION_ROLE ( 'design_supplier' ) ;
#53 = EDGE_LOOP ( 'NONE', ( #208 ) ) ;
#54 = APPROVAL_STATUS ( 'not_yet_approved' ) ;
#55 = EDGE_LOOP ( 'NONE', ( #20 ) ) ;
#56 = LOCAL_TIME ( 10, 53, 52.00000000000000000, #146 ) ;
#57 = EDGE_LOOP ( 'NONE', ( #132 ) ) ;
#58 = EDGE_LOOP ( 'NONE', ( #36 ) ) ;
#59 = LOCAL_TIME ( 10, 53, 52.00000000000000000, #90 ) ;
#60 = FACE_OUTER_BOUND ( 'NONE', #141, .T. ) ;
#61 = EDGE_CURVE ( 'NONE', #47, #47, #217, .T. ) ;
#62 = DIRECTION ( 'NONE',  ( 0.0000000000000000000, 1.000000000000000000, 0.0000000000000000000 ) ) ;
#63 = DIRECTION ( 'NONE',  ( -3.491481338843133355E-15, 1.229317185094960748E-16, -1.000000000000000000 ) ) ;
#64 = AXIS2_PLACEMENT_3D ( 'NONE', #78, #6, #237 ) ;
#65 = EDGE_LOOP ( 'NONE', ( #83 ) ) ;
#66 = DIRECTION ( 'NONE',  ( -3.491481338843133355E-15, 1.224646799147354686E-16, -1.000000000000000000 ) ) ;
#67 = AXIS2_PLACEMENT_3D ( 'NONE', #9, #120, #45 ) ;
#68 = CARTESIAN_POINT ( 'NONE',  ( 0.0000000000000000000, 0.0000000000000000000, 0.0000000000000000000 ) ) ;
#69 = PRODUCT_DEFINITION ( 'UNKNOWN', '', #14, #81 ) ;
#70 = FACE_OUTER_BOUND ( 'NONE', #57, .T. ) ;
#71 = PERSON_AND_ORGANIZATION_ROLE ( 'creator' ) ;
#72 = APPROVAL_ROLE ( '' ) ;
#73 = EDGE_LOOP ( 'NONE', ( #130 ) ) ;
#74 = AXIS2_PLACEMENT_3D ( 'NONE', #118, #101, #215 ) ;
#75 = EDGE_CURVE ( 'NONE', #162, #162, #85, .T. ) ;
#76 = DIRECTION ( 'NONE',  ( 4.275831445896963861E-31, 1.000000000000000000, 1.224646799147354686E-16 ) ) ;
#77 = CIRCLE ( 'NONE', #37, 0.5499999999999998224 ) ;
#78 = CARTESIAN_POINT ( 'NONE',  ( 1.108073338837760724E-14, -3.901420244251263375E-16, 3.173648177666930970 ) ) ;
#79 = ORIENTED_EDGE ( 'NONE', *, *, #164, .F. ) ;
#80 = FACE_OUTER_BOUND ( 'NONE', #110, .T. ) ;
#81 = DESIGN_CONTEXT ( 'detailed design', #167, 'design' ) ;
#82 = CONICAL_SURFACE ( 'NONE', #165, 1.500000000000000000, 0.7853981633974569387 ) ;
#83 = ORIENTED_EDGE ( 'NONE', *, *, #193, .F. ) ;
#84 = APPLICATION_PROTOCOL_DEFINITION ( 'international standard', 'config_control_design', 1994, #167 ) ;
#85 = CIRCLE ( 'NONE', #116, 1.200000000000000178 ) ;
#86 = CARTESIAN_POINT ( 'NONE',  ( 1.047444401652940007E-14, -4.336808689942017736E-16, 3.000000000000000000 ) ) ;
#87 = CC_DESIGN_DATE_AND_TIME_ASSIGNMENT ( #129, #34, ( #69 ) ) ;
#88 = CARTESIAN_POINT ( 'NONE',  ( 0.0000000000000000000, 0.0000000000000000000, 0.0000000000000000000 ) ) ;
#89 = LOCAL_TIME ( 10, 53, 52.00000000000000000, #184 ) ;
#90 = COORDINATED_UNIVERSAL_TIME_OFFSET ( 1, 0, .AHEAD. ) ;
#91 = SHAPE_DEFINITION_REPRESENTATION ( #197, #225 ) ;
#92 = DATE_AND_TIME ( #35, #95 ) ;
#93 = EDGE_LOOP ( 'NONE', ( #211 ) ) ;
#94 = AXIS2_PLACEMENT_3D ( 'NONE', #214, #175, #40 ) ;
#95 = LOCAL_TIME ( 10, 53, 52.00000000000000000, #169 ) ;
#96 = EDGE_LOOP ( 'NONE', ( #198 ) ) ;
#97 = CC_DESIGN_DATE_AND_TIME_ASSIGNMENT ( #128, #109, ( #122 ) ) ;
#98 = CARTESIAN_POINT ( 'NONE',  ( 1.326762908760390170E-13, -4.653657836759946674E-15, 37.99999999999999289 ) ) ;
#99 = CARTESIAN_POINT ( 'NONE',  ( 1.047444401652940007E-14, -3.687951555284882245E-16, 3.000000000000000000 ) ) ;
#100 = CARTESIAN_POINT ( 'NONE',  ( 2.959102496108022359E-14, -1.041871686511230696E-15, 8.475206392162736080 ) ) ;
#101 = DIRECTION ( 'NONE',  ( 3.491481338843133355E-15, -1.229317185094960748E-16, 1.000000000000000000 ) ) ;
#102 = APPROVAL_PERSON_ORGANIZATION ( #160, #205, #166 ) ;
#103 = ADVANCED_FACE ( 'NONE', ( #136 ), #194, .F. ) ;
#104 = DIRECTION ( 'NONE',  ( 0.0000000000000000000, 0.0000000000000000000, 1.000000000000000000 ) ) ;
#105 = DIRECTION ( 'NONE',  ( -3.491481338843133355E-15, 1.229317185094960748E-16, -1.000000000000000000 ) ) ;
#106 = DIRECTION ( 'NONE',  ( 4.396276420702772256E-31, 1.000000000000000000, 1.229317185094960748E-16 ) ) ;
#107 = CALENDAR_DATE ( 2021, 9, 12 ) ;
#108 = APPROVAL_STATUS ( 'not_yet_approved' ) ;
#109 = DATE_TIME_ROLE ( 'classification_date' ) ;
#110 = EDGE_LOOP ( 'NONE', ( #79 ) ) ;
#111 = ADVANCED_FACE ( 'NONE', ( #172 ), #159, .T. ) ;
#112 = CARTESIAN_POINT ( 'NONE',  ( -1.518817024389391596E-30, 5.347609475453528226E-32, -4.350064849244292791E-16 ) ) ;
#113 = APPLICATION_CONTEXT ( 'configuration controlled 3d designs of mechanical parts and assemblies' ) ;
#114 = PLANE ( 'NONE',  #235 ) ;
#115 = CARTESIAN_POINT ( 'NONE',  ( 1.047444401652940007E-14, 1.124819836996395395E-32, 3.000000000000000000 ) ) ;
#116 = AXIS2_PLACEMENT_3D ( 'NONE', #98, #117, #232 ) ;
#117 = DIRECTION ( 'NONE',  ( -3.491481338843133355E-15, 1.224646799147354686E-16, -1.000000000000000000 ) ) ;
#118 = CARTESIAN_POINT ( 'NONE',  ( 9.889513620288451585E-14, -3.482003157341659053E-15, 28.32469276082466791 ) ) ;
#119 = PERSON ( 'UNSPECIFIED', 'UNSPECIFIED', 'UNSPECIFIED', ('UNSPECIFIED'), ('UNSPECIFIED'), ('UNSPECIFIED') ) ;
#120 = DIRECTION ( 'NONE',  ( -3.491481338843133355E-15, 1.224646799147354686E-16, -1.000000000000000000 ) ) ;
#121 = PRODUCT_RELATED_PRODUCT_CATEGORY ( 'detail', '', ( #126 ) ) ;
#122 = SECURITY_CLASSIFICATION ( '', '', #38 ) ;
#123 = CARTESIAN_POINT ( 'NONE',  ( 1.047444401652940007E-14, 0.5499999999999994893, 3.000000000000000000 ) ) ;
#124 = CIRCLE ( 'NONE', #31, 1.500000000000000000 ) ;
#125 = VERTEX_POINT ( 'NONE', #223 ) ;
#126 = PRODUCT ( '378221', '378221', '', ( #182 ) ) ;
#127 = CC_DESIGN_SECURITY_CLASSIFICATION ( #122, ( #14 ) ) ;
#128 = DATE_AND_TIME ( #243, #56 ) ;
#129 = DATE_AND_TIME ( #50, #59 ) ;
#130 = ORIENTED_EDGE ( 'NONE', *, *, #43, .F. ) ;
#131 = APPROVAL_ROLE ( '' ) ;
#132 = ORIENTED_EDGE ( 'NONE', *, *, #2, .T. ) ;
#133 = CC_DESIGN_PERSON_AND_ORGANIZATION_ASSIGNMENT ( #46, #201, ( #126 ) ) ;
#134 = AXIS2_PLACEMENT_3D ( 'NONE', #86, #105, #106 ) ;
#135 = DIRECTION ( 'NONE',  ( -3.491481338843133355E-15, 1.224646799147354686E-16, -1.000000000000000000 ) ) ;
#136 = FACE_OUTER_BOUND ( 'NONE', #96, .T. ) ;
#137 = FACE_OUTER_BOUND ( 'NONE', #65, .T. ) ;
#138 = CIRCLE ( 'NONE', #222, 1.500000000000000000 ) ;
#139 = FACE_BOUND ( 'NONE', #151, .T. ) ;
#140 = CC_DESIGN_PERSON_AND_ORGANIZATION_ASSIGNMENT ( #228, #168, ( #122 ) ) ;
#141 = EDGE_LOOP ( 'NONE', ( #17 ) ) ;
#142 = CARTESIAN_POINT ( 'NONE',  ( 1.326762908760390170E-13, 1.199999999999995515, 37.99999999999999289 ) ) ;
#143 = AXIS2_PLACEMENT_3D ( 'NONE', #21, #3, #76 ) ;
#144 = DIRECTION ( 'NONE',  ( 4.292138011278225812E-31, 1.000000000000000000, 1.229317185094960748E-16 ) ) ;
#145 = AXIS2_PLACEMENT_3D ( 'NONE', #68, #30, #144 ) ;
#146 = COORDINATED_UNIVERSAL_TIME_OFFSET ( 1, 0, .AHEAD. ) ;
#147 = DATE_AND_TIME ( #186, #209 ) ;
#148 = ADVANCED_FACE ( 'NONE', ( #60 ), #5, .F. ) ;
#149 = PERSON_AND_ORGANIZATION ( #119, #178 ) ;
#150 = CIRCLE ( 'NONE', #94, 0.5499999999999998224 ) ;
#151 = EDGE_LOOP ( 'NONE', ( #1 ) ) ;
#152 = FACE_OUTER_BOUND ( 'NONE', #53, .T. ) ;
#153 = APPROVAL_PERSON_ORGANIZATION ( #224, #51, #72 ) ;
#154 = DIRECTION ( 'NONE',  ( -3.491481338843133355E-15, 1.229317185094960748E-16, -1.000000000000000000 ) ) ;
#155 = FACE_BOUND ( 'NONE', #93, .T. ) ;
#156 = UNCERTAINTY_MEASURE_WITH_UNIT (LENGTH_MEASURE( 1.000000000000000082E-05 ), #203, 'distance_accuracy_value', 'NONE');
#157 = DIRECTION ( 'NONE',  ( 3.491481338843133355E-15, -1.224646799147354686E-16, 1.000000000000000000 ) ) ;
#158 = CC_DESIGN_PERSON_AND_ORGANIZATION_ASSIGNMENT ( #149, #207, ( #69 ) ) ;
#159 = PLANE ( 'NONE',  #143 ) ;
#160 = PERSON_AND_ORGANIZATION ( #119, #178 ) ;
#161 = CYLINDRICAL_SURFACE ( 'NONE', #67, 1.500000000000000000 ) ;
#162 = VERTEX_POINT ( 'NONE', #142 ) ;
#163 = FACE_OUTER_BOUND ( 'NONE', #73, .T. ) ;
#164 = EDGE_CURVE ( 'NONE', #219, #219, #150, .T. ) ;
#165 = AXIS2_PLACEMENT_3D ( 'NONE', #177, #66, #41 ) ;
#166 = APPROVAL_ROLE ( '' ) ;
#167 = APPLICATION_CONTEXT ( 'configuration controlled 3d designs of mechanical parts and assemblies' ) ;
#168 = PERSON_AND_ORGANIZATION_ROLE ( 'classification_officer' ) ;
#169 = COORDINATED_UNIVERSAL_TIME_OFFSET ( 1, 0, .AHEAD. ) ;
#170 = ORIENTED_EDGE ( 'NONE', *, *, #61, .T. ) ;
#171 = AXIS2_PLACEMENT_3D ( 'NONE', #112, #154, #22 ) ;
#172 = FACE_OUTER_BOUND ( 'NONE', #55, .T. ) ;
#173 = EDGE_LOOP ( 'NONE', ( #188 ) ) ;
#174 = DIRECTION ( 'NONE',  ( 0.0000000000000000000, 1.000000000000000000, 0.0000000000000000000 ) ) ;
#175 = DIRECTION ( 'NONE',  ( -3.491481338843133355E-15, 1.229317185094960748E-16, -1.000000000000000000 ) ) ;
#176 = ADVANCED_FACE ( 'NONE', ( #80 ), #114, .T. ) ;
#177 = CARTESIAN_POINT ( 'NONE',  ( 1.316288464743861212E-13, -4.616918432785527392E-15, 37.69999999999999574 ) ) ;
#178 = ORGANIZATION ( 'UNSPECIFIED', 'UNSPECIFIED', '' ) ;
#179 = DIRECTION ( 'NONE',  ( 1.000000000000000000, 0.0000000000000000000, 0.0000000000000000000 ) ) ;
#180 = VERTEX_POINT ( 'NONE', #240 ) ;
#181 = CIRCLE ( 'NONE', #171, 0.5500000000000001554 ) ;
#182 = MECHANICAL_CONTEXT ( 'NONE', #113, 'mechanical' ) ;
#183 = CC_DESIGN_PERSON_AND_ORGANIZATION_ASSIGNMENT ( #16, #52, ( #14 ) ) ;
#184 = COORDINATED_UNIVERSAL_TIME_OFFSET ( 1, 0, .AHEAD. ) ;
#185 = MANIFOLD_SOLID_BREP ( 'Corps-Déplacer/Copier1[1]', #241 ) ;
#186 = CALENDAR_DATE ( 2021, 9, 12 ) ;
#187 = APPROVAL_DATE_TIME ( #226, #213 ) ;
#188 = ORIENTED_EDGE ( 'NONE', *, *, #2, .F. ) ;
#189 = CONICAL_SURFACE ( 'NONE', #74, 4.999999999999999112, 0.1745329251994333364 ) ;
#190 = EDGE_LOOP ( 'NONE', ( #170 ) ) ;
#191 = APPROVAL_DATE_TIME ( #92, #51 ) ;
#192 = CARTESIAN_POINT ( 'NONE',  ( 1.047444401652940007E-14, 1.124819836996395395E-32, 3.000000000000000000 ) ) ;
#193 = EDGE_CURVE ( 'NONE', #26, #26, #77, .T. ) ;
#194 = PLANE ( 'NONE',  #202 ) ;
#195 = DIRECTION ( 'NONE',  ( -4.275831445896963861E-31, -1.000000000000000000, -1.224646799147354686E-16 ) ) ;
#196 = DIRECTION ( 'NONE',  ( -3.491481338843133355E-15, 1.224646799147354686E-16, -1.000000000000000000 ) ) ;
#197 = PRODUCT_DEFINITION_SHAPE ( 'NONE', 'NONE',  #69 ) ;
#198 = ORIENTED_EDGE ( 'NONE', *, *, #193, .T. ) ;
#199 = CARTESIAN_POINT ( 'NONE',  ( 1.108073338837760724E-14, 0.5651922469877912469, 3.173648177666930970 ) ) ;
#200 = APPROVAL_PERSON_ORGANIZATION ( #32, #213, #131 ) ;
#201 = PERSON_AND_ORGANIZATION_ROLE ( 'design_owner' ) ;
#202 = AXIS2_PLACEMENT_3D ( 'NONE', #192, #7, #231 ) ;
#203 =( LENGTH_UNIT ( ) NAMED_UNIT ( * ) SI_UNIT ( .MILLI., .METRE. ) );
#204 = AXIS2_PLACEMENT_3D ( 'NONE', #88, #104, #179 ) ;
#205 = APPROVAL ( #54, 'UNSPECIFIED' ) ;
#206 = APPROVAL_STATUS ( 'not_yet_approved' ) ;
#207 = PERSON_AND_ORGANIZATION_ROLE ( 'creator' ) ;
#208 = ORIENTED_EDGE ( 'NONE', *, *, #15, .T. ) ;
#209 = LOCAL_TIME ( 10, 53, 52.00000000000000000, #13 ) ;
#210 = PERSON_AND_ORGANIZATION ( #119, #178 ) ;
#211 = ORIENTED_EDGE ( 'NONE', *, *, #75, .T. ) ;
#212 =( GEOMETRIC_REPRESENTATION_CONTEXT ( 3 ) GLOBAL_UNCERTAINTY_ASSIGNED_CONTEXT ( ( #156 ) ) GLOBAL_UNIT_ASSIGNED_CONTEXT ( ( #203, #48, #29 ) ) REPRESENTATION_CONTEXT ( 'NONE', 'WORKASPACE' ) );
#213 = APPROVAL ( #108, 'UNSPECIFIED' ) ;
#214 = CARTESIAN_POINT ( 'NONE',  ( 1.047444401652940007E-14, -3.687951555284882245E-16, 3.000000000000000000 ) ) ;
#215 = DIRECTION ( 'NONE',  ( 0.0000000000000000000, -1.000000000000000000, 0.0000000000000000000 ) ) ;
#216 = FACE_OUTER_BOUND ( 'NONE', #190, .T. ) ;
#217 = CIRCLE ( 'NONE', #64, 0.5651922469877916910 ) ;
#218 = EDGE_LOOP ( 'NONE', ( #227 ) ) ;
#219 = VERTEX_POINT ( 'NONE', #28 ) ;
#220 = CARTESIAN_POINT ( 'NONE',  ( 2.959102496108022359E-14, -1.500000000000001110, 8.475206392162736080 ) ) ;
#221 = ADVANCED_FACE ( 'NONE', ( #137, #216 ), #18, .F. ) ;
#222 = AXIS2_PLACEMENT_3D ( 'NONE', #44, #196, #62 ) ;
#223 = CARTESIAN_POINT ( 'NONE',  ( -1.282749433769089158E-30, 0.5500000000000001554, -3.673940397442063812E-16 ) ) ;
#224 = PERSON_AND_ORGANIZATION ( #119, #178 ) ;
#225 = ADVANCED_BREP_SHAPE_REPRESENTATION ( '378221', ( #185, #19, #204 ), #212 ) ;
#226 = DATE_AND_TIME ( #107, #89 ) ;
#227 = ORIENTED_EDGE ( 'NONE', *, *, #164, .T. ) ;
#228 = PERSON_AND_ORGANIZATION ( #119, #178 ) ;
#229 = ADVANCED_FACE ( 'NONE', ( #234, #70 ), #161, .T. ) ;
#230 = CC_DESIGN_APPROVAL ( #213, ( #14 ) ) ;
#231 = DIRECTION ( 'NONE',  ( -4.275831445896963861E-31, -1.000000000000000000, -1.224646799147354686E-16 ) ) ;
#232 = DIRECTION ( 'NONE',  ( 0.0000000000000000000, 1.000000000000000000, 0.0000000000000000000 ) ) ;
#233 = DIRECTION ( 'NONE',  ( 4.275831445896963861E-31, 1.000000000000000000, 1.224646799147354686E-16 ) ) ;
#234 = FACE_OUTER_BOUND ( 'NONE', #58, .T. ) ;
#235 = AXIS2_PLACEMENT_3D ( 'NONE', #115, #157, #195 ) ;
#236 = CC_DESIGN_APPROVAL ( #51, ( #122 ) ) ;
#237 = DIRECTION ( 'NONE',  ( 0.0000000000000000000, 1.000000000000000000, 0.0000000000000000000 ) ) ;
#238 = ADVANCED_FACE ( 'NONE', ( #163, #49 ), #11, .T. ) ;
#239 = VERTEX_POINT ( 'NONE', #220 ) ;
#240 = CARTESIAN_POINT ( 'NONE',  ( 1.316288464743861212E-13, 1.499999999999995559, 37.69999999999999574 ) ) ;
#241 = CLOSED_SHELL ( 'NONE', ( #229, #33, #148, #221, #8, #103 ) ) ;
#242 = APPROVAL_DATE_TIME ( #147, #205 ) ;
#243 = CALENDAR_DATE ( 2021, 9, 12 ) ;
ENDSEC;
END-ISO-10303-21;
