ISO-10303-21;
HEADER;
FILE_DESCRIPTION (( 'STEP AP203' ),
    '1' );
FILE_NAME ('378919.step',
    '2021-12-09T09:54:01',
    ( '' ),
    ( '' ),
    'SwSTEP 2.0',
    'SolidWorks 2019',
    '' );
FILE_SCHEMA (( 'CONFIG_CONTROL_DESIGN' ));
ENDSEC;

DATA;
#1 = DIRECTION ( 'NONE',  ( 4.400526968026224705E-31, 1.000000000000000000, 1.229317185094960748E-16 ) ) ;
#2 = MANIFOLD_SOLID_BREP ( 'Corps-Déplacer/Copier1[1]', #92 ) ;
#3 = EDGE_LOOP ( 'NONE', ( #224 ) ) ;
#4 = EDGE_LOOP ( 'NONE', ( #225 ) ) ;
#5 = CC_DESIGN_PERSON_AND_ORGANIZATION_ASSIGNMENT ( #141, #121, ( #100 ) ) ;
#6 = APPROVAL ( #122, 'UNSPECIFIED' ) ;
#7 = CARTESIAN_POINT ( 'NONE',  ( -3.206873584422722458E-31, 1.124819836996396080E-32, -9.184850993605159531E-17 ) ) ;
#8 = DIRECTION ( 'NONE',  ( 3.491481338843133355E-15, -1.224646799147354686E-16, 1.000000000000000000 ) ) ;
#9 = LOCAL_TIME ( 10, 54, 1.000000000000000000, #91 ) ;
#10 = DIRECTION ( 'NONE',  ( -3.491481338843133355E-15, 1.229317185094960748E-16, -1.000000000000000000 ) ) ;
#11 = ADVANCED_FACE ( 'NONE', ( #60, #75 ), #82, .F. ) ;
#12 =( NAMED_UNIT ( * ) SI_UNIT ( $, .STERADIAN. ) SOLID_ANGLE_UNIT ( ) );
#13 = ORIENTED_EDGE ( 'NONE', *, *, #221, .F. ) ;
#14 = ADVANCED_BREP_SHAPE_REPRESENTATION ( '378919', ( #2, #242, #93 ), #118 ) ;
#15 = CARTESIAN_POINT ( 'NONE',  ( 3.052369802347885030E-14, -1.074710212982109409E-15, 8.742334574124509317 ) ) ;
#16 = AXIS2_PLACEMENT_3D ( 'NONE', #97, #129, #80 ) ;
#17 = APPLICATION_CONTEXT ( 'configuration controlled 3d designs of mechanical parts and assemblies' ) ;
#18 = CARTESIAN_POINT ( 'NONE',  ( 0.0000000000000000000, 0.0000000000000000000, 0.0000000000000000000 ) ) ;
#19 = CALENDAR_DATE ( 2021, 9, 12 ) ;
#20 = EDGE_LOOP ( 'NONE', ( #72 ) ) ;
#21 = ORIENTED_EDGE ( 'NONE', *, *, #164, .F. ) ;
#22 = CC_DESIGN_APPROVAL ( #88, ( #104 ) ) ;
#23 = PERSON_AND_ORGANIZATION_ROLE ( 'creator' ) ;
#24 = CC_DESIGN_PERSON_AND_ORGANIZATION_ASSIGNMENT ( #145, #23, ( #104 ) ) ;
#25 = EDGE_LOOP ( 'NONE', ( #94 ) ) ;
#26 = COORDINATED_UNIVERSAL_TIME_OFFSET ( 1, 0, .AHEAD. ) ;
#27 = AXIS2_PLACEMENT_3D ( 'NONE', #155, #241, #136 ) ;
#28 = FACE_OUTER_BOUND ( 'NONE', #4, .T. ) ;
#29 = FACE_OUTER_BOUND ( 'NONE', #25, .T. ) ;
#30 = DIRECTION ( 'NONE',  ( -3.491481338843133355E-15, 1.224646799147354686E-16, -1.000000000000000000 ) ) ;
#31 = CC_DESIGN_SECURITY_CLASSIFICATION ( #100, ( #135 ) ) ;
#32 = VERTEX_POINT ( 'NONE', #51 ) ;
#33 = AXIS2_PLACEMENT_3D ( 'NONE', #175, #133, #85 ) ;
#34 = FACE_OUTER_BOUND ( 'NONE', #123, .T. ) ;
#35 = CARTESIAN_POINT ( 'NONE',  ( 9.426999614876461637E-15, 0.4499999999999994560, 2.700000000000000178 ) ) ;
#36 = APPROVAL ( #205, 'UNSPECIFIED' ) ;
#37 = APPROVAL_STATUS ( 'not_yet_approved' ) ;
#38 = AXIS2_PLACEMENT_3D ( 'NONE', #230, #209, #148 ) ;
#39 = EDGE_LOOP ( 'NONE', ( #185 ) ) ;
#40 = APPROVAL_DATE_TIME ( #208, #6 ) ;
#41 = APPROVAL_ROLE ( '' ) ;
#42 = APPROVAL_PERSON_ORGANIZATION ( #204, #88, #166 ) ;
#43 = APPROVAL_ROLE ( '' ) ;
#44 = ADVANCED_FACE ( 'NONE', ( #54, #56 ), #59, .T. ) ;
#45 = CARTESIAN_POINT ( 'NONE',  ( -1.475895644276609127E-30, 5.196487401296546857E-32, -4.227133130734795582E-16 ) ) ;
#46 = LOCAL_TIME ( 10, 54, 1.000000000000000000, #111 ) ;
#47 = CC_DESIGN_PERSON_AND_ORGANIZATION_ASSIGNMENT ( #110, #163, ( #135 ) ) ;
#48 = FACE_BOUND ( 'NONE', #109, .T. ) ;
#49 = CYLINDRICAL_SURFACE ( 'NONE', #131, 1.500000000000000000 ) ;
#50 = CC_DESIGN_APPROVAL ( #6, ( #135 ) ) ;
#51 = CARTESIAN_POINT ( 'NONE',  ( 9.426999614876461637E-15, 0.4499999999999994560, 2.700000000000000178 ) ) ;
#52 = DIRECTION ( 'NONE',  ( -4.275831445896963861E-31, -1.000000000000000000, -1.224646799147354686E-16 ) ) ;
#53 = DATE_AND_TIME ( #220, #126 ) ;
#54 = FACE_OUTER_BOUND ( 'NONE', #20, .T. ) ;
#55 = COORDINATED_UNIVERSAL_TIME_OFFSET ( 1, 0, .AHEAD. ) ;
#56 = FACE_BOUND ( 'NONE', #39, .T. ) ;
#57 = EDGE_CURVE ( 'NONE', #235, #235, #99, .T. ) ;
#58 = PERSON_AND_ORGANIZATION ( #152, #76 ) ;
#59 = CONICAL_SURFACE ( 'NONE', #239, 4.999999999999999112, 0.1745329251994333641 ) ;
#60 = FACE_OUTER_BOUND ( 'NONE', #147, .T. ) ;
#61 = DIRECTION ( 'NONE',  ( 3.491481338843133355E-15, -1.229317185094960748E-16, 1.000000000000000000 ) ) ;
#62 = CARTESIAN_POINT ( 'NONE',  ( 1.326762908760390170E-13, 2.197316402903955485E-13, 37.99999999999999289 ) ) ;
#63 = CIRCLE ( 'NONE', #33, 0.4651922469877916022 ) ;
#64 = DESIGN_CONTEXT ( 'detailed design', #17, 'design' ) ;
#65 = DIRECTION ( 'NONE',  ( -3.491481338843133355E-15, 1.229317185094960748E-16, -1.000000000000000000 ) ) ;
#66 = AXIS2_PLACEMENT_3D ( 'NONE', #7, #116, #157 ) ;
#67 = CARTESIAN_POINT ( 'NONE',  ( 3.052369802347885030E-14, -1.500000000000001110, 8.742334574124509317 ) ) ;
#68 = CARTESIAN_POINT ( 'NONE',  ( 9.426999614876461637E-15, -3.319156399756394563E-16, 2.700000000000000178 ) ) ;
#69 = DIRECTION ( 'NONE',  ( -3.491481338843133355E-15, 1.224646799147354686E-16, -1.000000000000000000 ) ) ;
#70 = EDGE_LOOP ( 'NONE', ( #167 ) ) ;
#71 = CIRCLE ( 'NONE', #86, 0.4499999999999997891 ) ;
#72 = ORIENTED_EDGE ( 'NONE', *, *, #192, .T. ) ;
#73 = DATE_AND_TIME ( #125, #240 ) ;
#74 = APPLICATION_PROTOCOL_DEFINITION ( 'international standard', 'config_control_design', 1994, #17 ) ;
#75 = FACE_OUTER_BOUND ( 'NONE', #182, .T. ) ;
#76 = ORGANIZATION ( 'UNSPECIFIED', 'UNSPECIFIED', '' ) ;
#77 = ORIENTED_EDGE ( 'NONE', *, *, #164, .T. ) ;
#78 = SECURITY_CLASSIFICATION_LEVEL ( 'unclassified' ) ;
#79 = CONICAL_SURFACE ( 'NONE', #213, 1.500000000000000000, 0.7853981633974569387 ) ;
#80 = DIRECTION ( 'NONE',  ( -4.275831445896963861E-31, -1.000000000000000000, -1.224646799147354686E-16 ) ) ;
#81 = ADVANCED_FACE ( 'NONE', ( #170 ), #211, .F. ) ;
#82 = TOROIDAL_SURFACE ( 'NONE', #134, 1.449999999999999512, 0.9999999999999997780 ) ;
#83 = CIRCLE ( 'NONE', #196, 0.4499999999999997891 ) ;
#84 = CYLINDRICAL_SURFACE ( 'NONE', #38, 0.4499999999999996225 ) ;
#85 = DIRECTION ( 'NONE',  ( 0.0000000000000000000, 1.000000000000000000, 0.0000000000000000000 ) ) ;
#86 = AXIS2_PLACEMENT_3D ( 'NONE', #173, #10, #106 ) ;
#87 = CARTESIAN_POINT ( 'NONE',  ( 1.003328898672466566E-14, 0.4651922469877912136, 2.873648177666931147 ) ) ;
#88 = APPROVAL ( #37, 'UNSPECIFIED' ) ;
#89 = DATE_TIME_ROLE ( 'classification_date' ) ;
#90 = DIRECTION ( 'NONE',  ( -3.491481338843133355E-15, 1.229317185094960748E-16, -1.000000000000000000 ) ) ;
#91 = COORDINATED_UNIVERSAL_TIME_OFFSET ( 1, 0, .AHEAD. ) ;
#92 = CLOSED_SHELL ( 'NONE', ( #169, #138, #81, #11, #44, #212 ) ) ;
#93 = AXIS2_PLACEMENT_3D ( 'NONE', #18, #158, #107 ) ;
#94 = ORIENTED_EDGE ( 'NONE', *, *, #183, .F. ) ;
#95 = CALENDAR_DATE ( 2021, 9, 12 ) ;
#96 = PERSON_AND_ORGANIZATION ( #152, #76 ) ;
#97 = CARTESIAN_POINT ( 'NONE',  ( 9.426999614876460059E-15, -1.561251128379125793E-15, 2.699999999999999734 ) ) ;
#98 = PLANE ( 'NONE',  #66 ) ;
#99 = CIRCLE ( 'NONE', #189, 0.4499999999999994560 ) ;
#100 = SECURITY_CLASSIFICATION ( '', '', #78 ) ;
#101 = DIRECTION ( 'NONE',  ( -3.491481338843133355E-15, 1.224646799147354686E-16, -1.000000000000000000 ) ) ;
#102 = FACE_OUTER_BOUND ( 'NONE', #113, .T. ) ;
#103 = CARTESIAN_POINT ( 'NONE',  ( 1.316288464743861212E-13, 1.499999999999995559, 37.69999999999999574 ) ) ;
#104 = PRODUCT_DEFINITION ( 'UNKNOWN', '', #135, #64 ) ;
#105 = DIRECTION ( 'NONE',  ( -3.491481338843133355E-15, 1.229317185094960748E-16, -1.000000000000000000 ) ) ;
#106 = DIRECTION ( 'NONE',  ( 0.0000000000000000000, 1.000000000000000000, 0.0000000000000000000 ) ) ;
#107 = DIRECTION ( 'NONE',  ( 1.000000000000000000, 0.0000000000000000000, 0.0000000000000000000 ) ) ;
#108 = DATE_AND_TIME ( #143, #142 ) ;
#109 = EDGE_LOOP ( 'NONE', ( #234 ) ) ;
#110 = PERSON_AND_ORGANIZATION ( #152, #76 ) ;
#111 = COORDINATED_UNIVERSAL_TIME_OFFSET ( 1, 0, .AHEAD. ) ;
#112 = CC_DESIGN_DATE_AND_TIME_ASSIGNMENT ( #187, #89, ( #100 ) ) ;
#113 = EDGE_LOOP ( 'NONE', ( #198 ) ) ;
#114 = FACE_OUTER_BOUND ( 'NONE', #70, .T. ) ;
#115 = AXIS2_PLACEMENT_3D ( 'NONE', #62, #30, #171 ) ;
#116 = DIRECTION ( 'NONE',  ( -3.491481338843133355E-15, 1.224646799147354686E-16, -1.000000000000000000 ) ) ;
#117 = FACE_OUTER_BOUND ( 'NONE', #128, .T. ) ;
#118 =( GEOMETRIC_REPRESENTATION_CONTEXT ( 3 ) GLOBAL_UNCERTAINTY_ASSIGNED_CONTEXT ( ( #231 ) ) GLOBAL_UNIT_ASSIGNED_CONTEXT ( ( #178, #177, #12 ) ) REPRESENTATION_CONTEXT ( 'NONE', 'WORKASPACE' ) );
#119 = VERTEX_POINT ( 'NONE', #35 ) ;
#120 = CARTESIAN_POINT ( 'NONE',  ( 0.0000000000000000000, 0.0000000000000000000, 0.0000000000000000000 ) ) ;
#121 = PERSON_AND_ORGANIZATION_ROLE ( 'classification_officer' ) ;
#122 = APPROVAL_STATUS ( 'not_yet_approved' ) ;
#123 = EDGE_LOOP ( 'NONE', ( #77 ) ) ;
#124 = COORDINATED_UNIVERSAL_TIME_OFFSET ( 1, 0, .AHEAD. ) ;
#125 = CALENDAR_DATE ( 2021, 9, 12 ) ;
#126 = LOCAL_TIME ( 10, 54, 1.000000000000000000, #26 ) ;
#127 = SHAPE_DEFINITION_REPRESENTATION ( #194, #14 ) ;
#128 = EDGE_LOOP ( 'NONE', ( #161 ) ) ;
#129 = DIRECTION ( 'NONE',  ( 3.491481338843133355E-15, -1.224646799147354686E-16, 1.000000000000000000 ) ) ;
#130 = ADVANCED_FACE ( 'NONE', ( #29 ), #132, .T. ) ;
#131 = AXIS2_PLACEMENT_3D ( 'NONE', #120, #216, #236 ) ;
#132 = PLANE ( 'NONE',  #16 ) ;
#133 = DIRECTION ( 'NONE',  ( -3.491481338843133355E-15, 1.229317185094960748E-16, -1.000000000000000000 ) ) ;
#134 = AXIS2_PLACEMENT_3D ( 'NONE', #203, #90, #1 ) ;
#135 = PRODUCT_DEFINITION_FORMATION_WITH_SPECIFIED_SOURCE ( 'ANY', '', #159, .NOT_KNOWN. ) ;
#136 = DIRECTION ( 'NONE',  ( 0.0000000000000000000, 1.000000000000000000, 0.0000000000000000000 ) ) ;
#137 = VERTEX_POINT ( 'NONE', #67 ) ;
#138 = ADVANCED_FACE ( 'NONE', ( #48, #210 ), #79, .T. ) ;
#139 = CARTESIAN_POINT ( 'NONE',  ( 9.426999614876460059E-15, -1.561251128379125793E-15, 2.699999999999999734 ) ) ;
#140 = ADVANCED_FACE ( 'NONE', ( #28, #114 ), #84, .T. ) ;
#141 = PERSON_AND_ORGANIZATION ( #152, #76 ) ;
#142 = LOCAL_TIME ( 10, 54, 1.000000000000000000, #124 ) ;
#143 = CALENDAR_DATE ( 2021, 9, 12 ) ;
#144 = ORIENTED_EDGE ( 'NONE', *, *, #153, .F. ) ;
#145 = PERSON_AND_ORGANIZATION ( #152, #76 ) ;
#146 = ADVANCED_FACE ( 'NONE', ( #227 ), #98, .T. ) ;
#147 = EDGE_LOOP ( 'NONE', ( #21 ) ) ;
#148 = DIRECTION ( 'NONE',  ( 4.292138011278224936E-31, 1.000000000000000000, 1.229317185094960748E-16 ) ) ;
#149 = DIRECTION ( 'NONE',  ( 4.292138011278224060E-31, 1.000000000000000000, 1.229317185094960502E-16 ) ) ;
#150 = DIRECTION ( 'NONE',  ( 0.0000000000000000000, 1.000000000000000000, 0.0000000000000000000 ) ) ;
#151 = APPROVAL_PERSON_ORGANIZATION ( #184, #6, #43 ) ;
#152 = PERSON ( 'UNSPECIFIED', 'UNSPECIFIED', 'UNSPECIFIED', ('UNSPECIFIED'), ('UNSPECIFIED'), ('UNSPECIFIED') ) ;
#153 = EDGE_CURVE ( 'NONE', #215, #215, #202, .T. ) ;
#154 = DIRECTION ( 'NONE',  ( -3.491481338843133355E-15, 1.229317185094960748E-16, -1.000000000000000000 ) ) ;
#155 = CARTESIAN_POINT ( 'NONE',  ( 1.326762908760390170E-13, -4.653657836759946674E-15, 37.99999999999999289 ) ) ;
#156 = AXIS2_PLACEMENT_3D ( 'NONE', #15, #154, #176 ) ;
#157 = DIRECTION ( 'NONE',  ( 4.275831445896963861E-31, 1.000000000000000000, 1.224646799147354686E-16 ) ) ;
#158 = DIRECTION ( 'NONE',  ( 0.0000000000000000000, 0.0000000000000000000, 1.000000000000000000 ) ) ;
#159 = PRODUCT ( '378919', '378919', '', ( #160 ) ) ;
#160 = MECHANICAL_CONTEXT ( 'NONE', #226, 'mechanical' ) ;
#161 = ORIENTED_EDGE ( 'NONE', *, *, #221, .T. ) ;
#162 = CLOSED_SHELL ( 'NONE', ( #130, #140, #146 ) ) ;
#163 = PERSON_AND_ORGANIZATION_ROLE ( 'design_supplier' ) ;
#164 = EDGE_CURVE ( 'NONE', #32, #32, #83, .T. ) ;
#165 = CARTESIAN_POINT ( 'NONE',  ( 9.982780926528314256E-14, -3.514841683812536977E-15, 28.59182094278644115 ) ) ;
#166 = APPROVAL_ROLE ( '' ) ;
#167 = ORIENTED_EDGE ( 'NONE', *, *, #183, .T. ) ;
#168 = PERSON_AND_ORGANIZATION_ROLE ( 'design_owner' ) ;
#169 = ADVANCED_FACE ( 'NONE', ( #102, #117 ), #49, .T. ) ;
#170 = FACE_OUTER_BOUND ( 'NONE', #206, .T. ) ;
#171 = DIRECTION ( 'NONE',  ( 4.275831445896963861E-31, 1.000000000000000000, 1.224646799147354686E-16 ) ) ;
#172 = CC_DESIGN_PERSON_AND_ORGANIZATION_ASSIGNMENT ( #180, #223, ( #135 ) ) ;
#173 = CARTESIAN_POINT ( 'NONE',  ( 9.426999614876461637E-15, -3.319156399756394563E-16, 2.700000000000000178 ) ) ;
#174 = CC_DESIGN_PERSON_AND_ORGANIZATION_ASSIGNMENT ( #96, #168, ( #159 ) ) ;
#175 = CARTESIAN_POINT ( 'NONE',  ( 1.003328898672466566E-14, -3.532625088722775199E-16, 2.873648177666931147 ) ) ;
#176 = DIRECTION ( 'NONE',  ( 0.0000000000000000000, -1.000000000000000000, 0.0000000000000000000 ) ) ;
#177 =( NAMED_UNIT ( * ) PLANE_ANGLE_UNIT ( ) SI_UNIT ( $, .RADIAN. ) );
#178 =( LENGTH_UNIT ( ) NAMED_UNIT ( * ) SI_UNIT ( .MILLI., .METRE. ) );
#179 = CIRCLE ( 'NONE', #229, 1.500000000000000000 ) ;
#180 = PERSON_AND_ORGANIZATION ( #152, #76 ) ;
#181 = DATE_TIME_ROLE ( 'creation_date' ) ;
#182 = EDGE_LOOP ( 'NONE', ( #237 ) ) ;
#183 = EDGE_CURVE ( 'NONE', #119, #119, #71, .T. ) ;
#184 = PERSON_AND_ORGANIZATION ( #152, #76 ) ;
#185 = ORIENTED_EDGE ( 'NONE', *, *, #219, .F. ) ;
#186 = APPROVAL_PERSON_ORGANIZATION ( #58, #36, #41 ) ;
#187 = DATE_AND_TIME ( #19, #46 ) ;
#188 = CIRCLE ( 'NONE', #156, 1.500000000000000000 ) ;
#189 = AXIS2_PLACEMENT_3D ( 'NONE', #45, #65, #149 ) ;
#190 = DIRECTION ( 'NONE',  ( 0.0000000000000000000, -1.000000000000000000, 0.0000000000000000000 ) ) ;
#191 = VERTEX_POINT ( 'NONE', #87 ) ;
#192 = EDGE_CURVE ( 'NONE', #137, #137, #188, .T. ) ;
#193 = CARTESIAN_POINT ( 'NONE',  ( 1.326762908760390170E-13, 1.199999999999995515, 37.99999999999999289 ) ) ;
#194 = PRODUCT_DEFINITION_SHAPE ( 'NONE', 'NONE',  #104 ) ;
#195 = PLANE ( 'NONE',  #214 ) ;
#196 = AXIS2_PLACEMENT_3D ( 'NONE', #68, #105, #200 ) ;
#197 = DIRECTION ( 'NONE',  ( 0.0000000000000000000, 1.000000000000000000, 0.0000000000000000000 ) ) ;
#198 = ORIENTED_EDGE ( 'NONE', *, *, #192, .F. ) ;
#199 = CC_DESIGN_DATE_AND_TIME_ASSIGNMENT ( #73, #181, ( #104 ) ) ;
#200 = DIRECTION ( 'NONE',  ( 0.0000000000000000000, 1.000000000000000000, 0.0000000000000000000 ) ) ;
#201 = APPROVAL_DATE_TIME ( #53, #36 ) ;
#202 = CIRCLE ( 'NONE', #27, 1.200000000000000178 ) ;
#203 = CARTESIAN_POINT ( 'NONE',  ( 9.426999614876461637E-15, -4.336808689942017736E-16, 2.700000000000000178 ) ) ;
#204 = PERSON_AND_ORGANIZATION ( #152, #76 ) ;
#205 = APPROVAL_STATUS ( 'not_yet_approved' ) ;
#206 = EDGE_LOOP ( 'NONE', ( #144 ) ) ;
#207 = CC_DESIGN_APPROVAL ( #36, ( #100 ) ) ;
#208 = DATE_AND_TIME ( #95, #9 ) ;
#209 = DIRECTION ( 'NONE',  ( -3.491481338843133355E-15, 1.229317185094960748E-16, -1.000000000000000000 ) ) ;
#210 = FACE_OUTER_BOUND ( 'NONE', #243, .T. ) ;
#211 = PLANE ( 'NONE',  #115 ) ;
#212 = ADVANCED_FACE ( 'NONE', ( #34 ), #195, .F. ) ;
#213 = AXIS2_PLACEMENT_3D ( 'NONE', #228, #101, #150 ) ;
#214 = AXIS2_PLACEMENT_3D ( 'NONE', #139, #8, #52 ) ;
#215 = VERTEX_POINT ( 'NONE', #193 ) ;
#216 = DIRECTION ( 'NONE',  ( -3.491481338843133355E-15, 1.224646799147354686E-16, -1.000000000000000000 ) ) ;
#217 = VERTEX_POINT ( 'NONE', #103 ) ;
#218 = CARTESIAN_POINT ( 'NONE',  ( 1.316288464743861212E-13, -4.616918432785527392E-15, 37.69999999999999574 ) ) ;
#219 = EDGE_CURVE ( 'NONE', #191, #191, #63, .T. ) ;
#220 = CALENDAR_DATE ( 2021, 9, 12 ) ;
#221 = EDGE_CURVE ( 'NONE', #217, #217, #179, .T. ) ;
#222 = APPROVAL_DATE_TIME ( #108, #88 ) ;
#223 = PERSON_AND_ORGANIZATION_ROLE ( 'creator' ) ;
#224 = ORIENTED_EDGE ( 'NONE', *, *, #57, .T. ) ;
#225 = ORIENTED_EDGE ( 'NONE', *, *, #57, .F. ) ;
#226 = APPLICATION_CONTEXT ( 'configuration controlled 3d designs of mechanical parts and assemblies' ) ;
#227 = FACE_OUTER_BOUND ( 'NONE', #3, .T. ) ;
#228 = CARTESIAN_POINT ( 'NONE',  ( 1.316288464743861212E-13, -4.616918432785527392E-15, 37.69999999999999574 ) ) ;
#229 = AXIS2_PLACEMENT_3D ( 'NONE', #218, #69, #197 ) ;
#230 = CARTESIAN_POINT ( 'NONE',  ( 0.0000000000000000000, 0.0000000000000000000, 0.0000000000000000000 ) ) ;
#231 = UNCERTAINTY_MEASURE_WITH_UNIT (LENGTH_MEASURE( 1.000000000000000082E-05 ), #178, 'distance_accuracy_value', 'NONE');
#232 = PRODUCT_RELATED_PRODUCT_CATEGORY ( 'detail', '', ( #159 ) ) ;
#233 = CARTESIAN_POINT ( 'NONE',  ( -1.282749433769089158E-30, 0.4499999999999994560, -3.673940397442063812E-16 ) ) ;
#234 = ORIENTED_EDGE ( 'NONE', *, *, #153, .T. ) ;
#235 = VERTEX_POINT ( 'NONE', #233 ) ;
#236 = DIRECTION ( 'NONE',  ( 4.275831445896963861E-31, 1.000000000000000000, 1.224646799147354686E-16 ) ) ;
#237 = ORIENTED_EDGE ( 'NONE', *, *, #219, .T. ) ;
#238 = APPLICATION_PROTOCOL_DEFINITION ( 'international standard', 'config_control_design', 1994, #226 ) ;
#239 = AXIS2_PLACEMENT_3D ( 'NONE', #165, #61, #190 ) ;
#240 = LOCAL_TIME ( 10, 54, 1.000000000000000000, #55 ) ;
#241 = DIRECTION ( 'NONE',  ( -3.491481338843133355E-15, 1.224646799147354686E-16, -1.000000000000000000 ) ) ;
#242 = MANIFOLD_SOLID_BREP ( 'Corps-Déplacer/Copier1[2]', #162 ) ;
#243 = EDGE_LOOP ( 'NONE', ( #13 ) ) ;
ENDSEC;
END-ISO-10303-21;
