ISO-10303-21;
HEADER;
FILE_DESCRIPTION (( 'STEP AP203' ),
    '1' );
FILE_NAME ('378218.step',
    '2021-12-09T09:53:50',
    ( '' ),
    ( '' ),
    'SwSTEP 2.0',
    'SolidWorks 2019',
    '' );
FILE_SCHEMA (( 'CONFIG_CONTROL_DESIGN' ));
ENDSEC;

DATA;
#1 = PRODUCT_DEFINITION ( 'UNKNOWN', '', #39, #126 ) ;
#2 = MECHANICAL_CONTEXT ( 'NONE', #116, 'mechanical' ) ;
#3 = APPROVAL_DATE_TIME ( #44, #228 ) ;
#4 = PERSON_AND_ORGANIZATION ( #201, #179 ) ;
#5 = DIRECTION ( 'NONE',  ( 4.292138011278224936E-31, 1.000000000000000000, 1.229317185094961241E-16 ) ) ;
#6 = DIRECTION ( 'NONE',  ( -3.491481338843133355E-15, 1.229317185094960748E-16, -1.000000000000000000 ) ) ;
#7 = EDGE_LOOP ( 'NONE', ( #207 ) ) ;
#8 = FACE_OUTER_BOUND ( 'NONE', #64, .T. ) ;
#9 = ADVANCED_FACE ( 'NONE', ( #75, #73 ), #200, .F. ) ;
#10 = EDGE_LOOP ( 'NONE', ( #52 ) ) ;
#11 = CC_DESIGN_PERSON_AND_ORGANIZATION_ASSIGNMENT ( #45, #141, ( #39 ) ) ;
#12 = CARTESIAN_POINT ( 'NONE',  ( -3.206873584422722458E-31, 1.124819836996396080E-32, -9.184850993605159531E-17 ) ) ;
#13 = DIRECTION ( 'NONE',  ( -4.275831445896963861E-31, -1.000000000000000000, -1.224646799147354686E-16 ) ) ;
#14 = AXIS2_PLACEMENT_3D ( 'NONE', #12, #111, #56 ) ;
#15 = APPROVAL_PERSON_ORGANIZATION ( #101, #162, #189 ) ;
#16 = CC_DESIGN_PERSON_AND_ORGANIZATION_ASSIGNMENT ( #203, #20, ( #1 ) ) ;
#17 = CARTESIAN_POINT ( 'NONE',  ( 1.316288464743861212E-13, -4.616918432785527392E-15, 37.69999999999999574 ) ) ;
#18 = CARTESIAN_POINT ( 'NONE',  ( 8.379555213223520053E-15, -2.950361244227906388E-16, 2.400000000000000355 ) ) ;
#19 = CARTESIAN_POINT ( 'NONE',  ( -1.282749433769089158E-30, 0.3999999999999999667, -3.673940397442063812E-16 ) ) ;
#20 = PERSON_AND_ORGANIZATION_ROLE ( 'creator' ) ;
#21 = APPLICATION_PROTOCOL_DEFINITION ( 'international standard', 'config_control_design', 1994, #220 ) ;
#22 = VERTEX_POINT ( 'NONE', #221 ) ;
#23 =( NAMED_UNIT ( * ) SI_UNIT ( $, .STERADIAN. ) SOLID_ANGLE_UNIT ( ) );
#24 = CIRCLE ( 'NONE', #172, 0.4000000000000002442 ) ;
#25 = DATE_AND_TIME ( #180, #208 ) ;
#26 = CARTESIAN_POINT ( 'NONE',  ( 1.326762908760390170E-13, 2.197316402903955485E-13, 37.99999999999999289 ) ) ;
#27 = DIRECTION ( 'NONE',  ( 0.0000000000000000000, -1.000000000000000000, 0.0000000000000000000 ) ) ;
#28 = COORDINATED_UNIVERSAL_TIME_OFFSET ( 1, 0, .AHEAD. ) ;
#29 = AXIS2_PLACEMENT_3D ( 'NONE', #199, #40, #76 ) ;
#30 = EDGE_LOOP ( 'NONE', ( #211 ) ) ;
#31 = DIRECTION ( 'NONE',  ( -3.491481338843133355E-15, 1.229317185094960748E-16, -1.000000000000000000 ) ) ;
#32 = ORIENTED_EDGE ( 'NONE', *, *, #104, .F. ) ;
#33 = CIRCLE ( 'NONE', #190, 0.3999999999999999667 ) ;
#34 = LOCAL_TIME ( 10, 53, 50.00000000000000000, #224 ) ;
#35 = DIRECTION ( 'NONE',  ( -3.491481338843133355E-15, 1.229317185094960748E-16, -1.000000000000000000 ) ) ;
#36 = FACE_OUTER_BOUND ( 'NONE', #10, .T. ) ;
#37 = PLANE ( 'NONE',  #14 ) ;
#38 = FACE_OUTER_BOUND ( 'NONE', #240, .T. ) ;
#39 = PRODUCT_DEFINITION_FORMATION_WITH_SPECIFIED_SOURCE ( 'ANY', '', #225, .NOT_KNOWN. ) ;
#40 = DIRECTION ( 'NONE',  ( -3.491481338843133355E-15, 1.224646799147354686E-16, -1.000000000000000000 ) ) ;
#41 = ADVANCED_FACE ( 'NONE', ( #149 ), #94, .F. ) ;
#42 =( LENGTH_UNIT ( ) NAMED_UNIT ( * ) SI_UNIT ( .MILLI., .METRE. ) );
#43 = CLOSED_SHELL ( 'NONE', ( #143, #83, #109, #9, #129, #41 ) ) ;
#44 = DATE_AND_TIME ( #202, #214 ) ;
#45 = PERSON_AND_ORGANIZATION ( #201, #179 ) ;
#46 = CARTESIAN_POINT ( 'NONE',  ( 0.0000000000000000000, 0.0000000000000000000, 0.0000000000000000000 ) ) ;
#47 = ORIENTED_EDGE ( 'NONE', *, *, #235, .F. ) ;
#48 = PERSON_AND_ORGANIZATION ( #201, #179 ) ;
#49 = CIRCLE ( 'NONE', #113, 1.500000000000000000 ) ;
#50 = SECURITY_CLASSIFICATION ( '', '', #158 ) ;
#51 = ADVANCED_FACE ( 'NONE', ( #36 ), #37, .T. ) ;
#52 = ORIENTED_EDGE ( 'NONE', *, *, #132, .T. ) ;
#53 = DIRECTION ( 'NONE',  ( 0.0000000000000000000, 1.000000000000000000, 0.0000000000000000000 ) ) ;
#54 = CARTESIAN_POINT ( 'NONE',  ( 8.379555213223518475E-15, -2.168404344971008868E-16, 2.399999999999999911 ) ) ;
#55 = DIRECTION ( 'NONE',  ( -3.491481338843133355E-15, 1.224646799147354686E-16, -1.000000000000000000 ) ) ;
#56 = DIRECTION ( 'NONE',  ( 4.275831445896963861E-31, 1.000000000000000000, 1.224646799147354686E-16 ) ) ;
#57 = LOCAL_TIME ( 10, 53, 50.00000000000000000, #99 ) ;
#58 = APPROVAL_STATUS ( 'not_yet_approved' ) ;
#59 = COORDINATED_UNIVERSAL_TIME_OFFSET ( 1, 0, .AHEAD. ) ;
#60 = CALENDAR_DATE ( 2021, 9, 12 ) ;
#61 = PERSON_AND_ORGANIZATION_ROLE ( 'classification_officer' ) ;
#62 = CC_DESIGN_APPROVAL ( #228, ( #39 ) ) ;
#63 = CALENDAR_DATE ( 2021, 9, 12 ) ;
#64 = EDGE_LOOP ( 'NONE', ( #165 ) ) ;
#65 = APPROVAL_DATE_TIME ( #87, #136 ) ;
#66 = CC_DESIGN_PERSON_AND_ORGANIZATION_ASSIGNMENT ( #175, #118, ( #225 ) ) ;
#67 = ADVANCED_FACE ( 'NONE', ( #167 ), #147, .T. ) ;
#68 = EDGE_LOOP ( 'NONE', ( #139 ) ) ;
#69 = DIRECTION ( 'NONE',  ( 3.491481338843133355E-15, -1.229317185094960748E-16, 1.000000000000000000 ) ) ;
#70 = CC_DESIGN_PERSON_AND_ORGANIZATION_ASSIGNMENT ( #229, #157, ( #39 ) ) ;
#71 = ORIENTED_EDGE ( 'NONE', *, *, #194, .T. ) ;
#72 = CARTESIAN_POINT ( 'NONE',  ( 1.316288464743861212E-13, -4.616918432785527392E-15, 37.69999999999999574 ) ) ;
#73 = FACE_OUTER_BOUND ( 'NONE', #122, .T. ) ;
#74 = DIRECTION ( 'NONE',  ( 4.402785071291807613E-31, 1.000000000000000000, 1.229317185094960748E-16 ) ) ;
#75 = FACE_OUTER_BOUND ( 'NONE', #30, .T. ) ;
#76 = DIRECTION ( 'NONE',  ( 0.0000000000000000000, 1.000000000000000000, 0.0000000000000000000 ) ) ;
#77 = AXIS2_PLACEMENT_3D ( 'NONE', #17, #239, #216 ) ;
#78 = AXIS2_PLACEMENT_3D ( 'NONE', #18, #217, #124 ) ;
#79 = VERTEX_POINT ( 'NONE', #192 ) ;
#80 = PERSON_AND_ORGANIZATION ( #201, #179 ) ;
#81 = APPROVAL_ROLE ( '' ) ;
#82 = APPROVAL_PERSON_ORGANIZATION ( #48, #136, #135 ) ;
#83 = ADVANCED_FACE ( 'NONE', ( #198, #169 ), #231, .T. ) ;
#84 = DIRECTION ( 'NONE',  ( 4.275831445896963861E-31, 1.000000000000000000, 1.224646799147354686E-16 ) ) ;
#85 = FACE_OUTER_BOUND ( 'NONE', #159, .T. ) ;
#86 = ORIENTED_EDGE ( 'NONE', *, *, #104, .T. ) ;
#87 = DATE_AND_TIME ( #63, #218 ) ;
#88 = EDGE_LOOP ( 'NONE', ( #86 ) ) ;
#89 = APPROVAL_STATUS ( 'not_yet_approved' ) ;
#90 = APPROVAL_PERSON_ORGANIZATION ( #80, #228, #81 ) ;
#91 = ADVANCED_FACE ( 'NONE', ( #128, #38 ), #97, .T. ) ;
#92 = CARTESIAN_POINT ( 'NONE',  ( 0.0000000000000000000, 0.0000000000000000000, 0.0000000000000000000 ) ) ;
#93 = DIRECTION ( 'NONE',  ( -3.491481338843133355E-15, 1.229317185094960748E-16, -1.000000000000000000 ) ) ;
#94 = PLANE ( 'NONE',  #205 ) ;
#95 = CIRCLE ( 'NONE', #117, 0.4151922469877920574 ) ;
#96 = CARTESIAN_POINT ( 'NONE',  ( 8.985844585071725654E-15, -3.163829933194286531E-16, 2.573648177666930437 ) ) ;
#97 = CYLINDRICAL_SURFACE ( 'NONE', #151, 0.4000000000000000777 ) ;
#98 = APPROVAL_DATE_TIME ( #133, #162 ) ;
#99 = COORDINATED_UNIVERSAL_TIME_OFFSET ( 1, 0, .AHEAD. ) ;
#100 = PRODUCT_RELATED_PRODUCT_CATEGORY ( 'detail', '', ( #225 ) ) ;
#101 = PERSON_AND_ORGANIZATION ( #201, #179 ) ;
#102 = CARTESIAN_POINT ( 'NONE',  ( 0.0000000000000000000, 0.0000000000000000000, 0.0000000000000000000 ) ) ;
#103 = AXIS2_PLACEMENT_3D ( 'NONE', #72, #112, #53 ) ;
#104 = EDGE_CURVE ( 'NONE', #108, #108, #49, .T. ) ;
#105 = FACE_OUTER_BOUND ( 'NONE', #88, .T. ) ;
#106 = CARTESIAN_POINT ( 'NONE',  ( -1.454434954220218156E-30, 5.120926364218059458E-32, -4.165667271480048210E-16 ) ) ;
#107 = DIRECTION ( 'NONE',  ( -3.491481338843133355E-15, 1.229317185094960748E-16, -1.000000000000000000 ) ) ;
#108 = VERTEX_POINT ( 'NONE', #212 ) ;
#109 = ADVANCED_FACE ( 'NONE', ( #8 ), #163, .F. ) ;
#110 = DIRECTION ( 'NONE',  ( -4.275831445896963861E-31, -1.000000000000000000, -1.224646799147354686E-16 ) ) ;
#111 = DIRECTION ( 'NONE',  ( -3.491481338843133355E-15, 1.224646799147354686E-16, -1.000000000000000000 ) ) ;
#112 = DIRECTION ( 'NONE',  ( -3.491481338843133355E-15, 1.224646799147354686E-16, -1.000000000000000000 ) ) ;
#113 = AXIS2_PLACEMENT_3D ( 'NONE', #181, #123, #27 ) ;
#114 = CARTESIAN_POINT ( 'NONE',  ( 8.379555213223518475E-15, 1.124819836996395669E-32, 2.399999999999999911 ) ) ;
#115 = CC_DESIGN_SECURITY_CLASSIFICATION ( #50, ( #39 ) ) ;
#116 = APPLICATION_CONTEXT ( 'configuration controlled 3d designs of mechanical parts and assemblies' ) ;
#117 = AXIS2_PLACEMENT_3D ( 'NONE', #96, #35, #187 ) ;
#118 = PERSON_AND_ORGANIZATION_ROLE ( 'design_owner' ) ;
#119 = DIRECTION ( 'NONE',  ( 1.000000000000000000, 0.0000000000000000000, 0.0000000000000000000 ) ) ;
#120 = EDGE_LOOP ( 'NONE', ( #182 ) ) ;
#121 =( GEOMETRIC_REPRESENTATION_CONTEXT ( 3 ) GLOBAL_UNCERTAINTY_ASSIGNED_CONTEXT ( ( #238 ) ) GLOBAL_UNIT_ASSIGNED_CONTEXT ( ( #42, #243, #23 ) ) REPRESENTATION_CONTEXT ( 'NONE', 'WORKASPACE' ) );
#122 = EDGE_LOOP ( 'NONE', ( #71 ) ) ;
#123 = DIRECTION ( 'NONE',  ( -3.491481338843133355E-15, 1.229317185094960748E-16, -1.000000000000000000 ) ) ;
#124 = DIRECTION ( 'NONE',  ( 0.0000000000000000000, 1.000000000000000000, 0.0000000000000000000 ) ) ;
#125 = CIRCLE ( 'NONE', #103, 1.500000000000000000 ) ;
#126 = DESIGN_CONTEXT ( 'detailed design', #220, 'design' ) ;
#127 = DIRECTION ( 'NONE',  ( 4.275831445896963861E-31, 1.000000000000000000, 1.224646799147354686E-16 ) ) ;
#128 = FACE_OUTER_BOUND ( 'NONE', #68, .T. ) ;
#129 = ADVANCED_FACE ( 'NONE', ( #105, #178 ), #183, .T. ) ;
#130 = CARTESIAN_POINT ( 'NONE',  ( 8.985844585071725654E-15, 0.4151922469877917798, 2.573648177666930437 ) ) ;
#131 = AXIS2_PLACEMENT_3D ( 'NONE', #186, #215, #13 ) ;
#132 = EDGE_CURVE ( 'NONE', #166, #166, #33, .T. ) ;
#133 = DATE_AND_TIME ( #60, #34 ) ;
#134 = AXIS2_PLACEMENT_3D ( 'NONE', #230, #69, #206 ) ;
#135 = APPROVAL_ROLE ( '' ) ;
#136 = APPROVAL ( #89, 'UNSPECIFIED' ) ;
#137 = EDGE_LOOP ( 'NONE', ( #161 ) ) ;
#138 = ADVANCED_BREP_SHAPE_REPRESENTATION ( '378218', ( #226, #150, #193 ), #121 ) ;
#139 = ORIENTED_EDGE ( 'NONE', *, *, #132, .F. ) ;
#140 = AXIS2_PLACEMENT_3D ( 'NONE', #26, #176, #84 ) ;
#141 = PERSON_AND_ORGANIZATION_ROLE ( 'creator' ) ;
#142 = FACE_OUTER_BOUND ( 'NONE', #170, .T. ) ;
#143 = ADVANCED_FACE ( 'NONE', ( #142, #85 ), #148, .T. ) ;
#144 = DIRECTION ( 'NONE',  ( 4.292138011278225812E-31, 1.000000000000000000, 1.229317185094960748E-16 ) ) ;
#145 = ORIENTED_EDGE ( 'NONE', *, *, #235, .T. ) ;
#146 = CIRCLE ( 'NONE', #29, 1.200000000000000178 ) ;
#147 = PLANE ( 'NONE',  #131 ) ;
#148 = CYLINDRICAL_SURFACE ( 'NONE', #171, 1.500000000000000000 ) ;
#149 = FACE_OUTER_BOUND ( 'NONE', #137, .T. ) ;
#150 = MANIFOLD_SOLID_BREP ( 'Corps-Déplacer/Copier1[2]', #213 ) ;
#151 = AXIS2_PLACEMENT_3D ( 'NONE', #46, #107, #144 ) ;
#152 = CC_DESIGN_APPROVAL ( #136, ( #50 ) ) ;
#153 = DIRECTION ( 'NONE',  ( 0.0000000000000000000, 0.0000000000000000000, 1.000000000000000000 ) ) ;
#154 = CALENDAR_DATE ( 2021, 9, 12 ) ;
#155 = CARTESIAN_POINT ( 'NONE',  ( 1.316288464743861212E-13, 1.499999999999995559, 37.69999999999999574 ) ) ;
#156 = APPLICATION_PROTOCOL_DEFINITION ( 'international standard', 'config_control_design', 1994, #116 ) ;
#157 = PERSON_AND_ORGANIZATION_ROLE ( 'design_supplier' ) ;
#158 = SECURITY_CLASSIFICATION_LEVEL ( 'unclassified' ) ;
#159 = EDGE_LOOP ( 'NONE', ( #184 ) ) ;
#160 = DATE_TIME_ROLE ( 'classification_date' ) ;
#161 = ORIENTED_EDGE ( 'NONE', *, *, #204, .T. ) ;
#162 = APPROVAL ( #227, 'UNSPECIFIED' ) ;
#163 = PLANE ( 'NONE',  #140 ) ;
#164 = CC_DESIGN_PERSON_AND_ORGANIZATION_ASSIGNMENT ( #4, #61, ( #50 ) ) ;
#165 = ORIENTED_EDGE ( 'NONE', *, *, #195, .F. ) ;
#166 = VERTEX_POINT ( 'NONE', #19 ) ;
#167 = FACE_OUTER_BOUND ( 'NONE', #236, .T. ) ;
#168 = CC_DESIGN_APPROVAL ( #162, ( #1 ) ) ;
#169 = FACE_OUTER_BOUND ( 'NONE', #233, .T. ) ;
#170 = EDGE_LOOP ( 'NONE', ( #32 ) ) ;
#171 = AXIS2_PLACEMENT_3D ( 'NONE', #92, #55, #127 ) ;
#172 = AXIS2_PLACEMENT_3D ( 'NONE', #196, #31, #197 ) ;
#173 = DATE_AND_TIME ( #154, #57 ) ;
#174 = VERTEX_POINT ( 'NONE', #191 ) ;
#175 = PERSON_AND_ORGANIZATION ( #201, #179 ) ;
#176 = DIRECTION ( 'NONE',  ( -3.491481338843133355E-15, 1.224646799147354686E-16, -1.000000000000000000 ) ) ;
#177 = EDGE_CURVE ( 'NONE', #219, #219, #125, .T. ) ;
#178 = FACE_BOUND ( 'NONE', #120, .T. ) ;
#179 = ORGANIZATION ( 'UNSPECIFIED', 'UNSPECIFIED', '' ) ;
#180 = CALENDAR_DATE ( 2021, 9, 12 ) ;
#181 = CARTESIAN_POINT ( 'NONE',  ( 3.046631235385167787E-14, -1.072689718441123025E-15, 8.725898665105390251 ) ) ;
#182 = ORIENTED_EDGE ( 'NONE', *, *, #194, .F. ) ;
#183 = CONICAL_SURFACE ( 'NONE', #134, 4.999999999999999112, 0.1745329251994333086 ) ;
#184 = ORIENTED_EDGE ( 'NONE', *, *, #177, .T. ) ;
#185 = CC_DESIGN_DATE_AND_TIME_ASSIGNMENT ( #173, #242, ( #1 ) ) ;
#186 = CARTESIAN_POINT ( 'NONE',  ( 8.379555213223518475E-15, 1.124819836996395669E-32, 2.399999999999999911 ) ) ;
#187 = DIRECTION ( 'NONE',  ( 0.0000000000000000000, 1.000000000000000000, 0.0000000000000000000 ) ) ;
#188 = ORIENTED_EDGE ( 'NONE', *, *, #177, .F. ) ;
#189 = APPROVAL_ROLE ( '' ) ;
#190 = AXIS2_PLACEMENT_3D ( 'NONE', #106, #6, #5 ) ;
#191 = CARTESIAN_POINT ( 'NONE',  ( 1.326762908760390170E-13, 1.199999999999995515, 37.99999999999999289 ) ) ;
#192 = CARTESIAN_POINT ( 'NONE',  ( 8.379555213223520053E-15, 0.3999999999999999667, 2.400000000000000355 ) ) ;
#193 = AXIS2_PLACEMENT_3D ( 'NONE', #102, #153, #119 ) ;
#194 = EDGE_CURVE ( 'NONE', #241, #241, #95, .T. ) ;
#195 = EDGE_CURVE ( 'NONE', #174, #174, #146, .T. ) ;
#196 = CARTESIAN_POINT ( 'NONE',  ( 8.379555213223520053E-15, -2.950361244227906388E-16, 2.400000000000000355 ) ) ;
#197 = DIRECTION ( 'NONE',  ( 0.0000000000000000000, 1.000000000000000000, 0.0000000000000000000 ) ) ;
#198 = FACE_BOUND ( 'NONE', #7, .T. ) ;
#199 = CARTESIAN_POINT ( 'NONE',  ( 1.326762908760390170E-13, -4.653657836759946674E-15, 37.99999999999999289 ) ) ;
#200 = TOROIDAL_SURFACE ( 'NONE', #222, 1.399999999999999911, 1.000000000000000000 ) ;
#201 = PERSON ( 'UNSPECIFIED', 'UNSPECIFIED', 'UNSPECIFIED', ('UNSPECIFIED'), ('UNSPECIFIED'), ('UNSPECIFIED') ) ;
#202 = CALENDAR_DATE ( 2021, 9, 12 ) ;
#203 = PERSON_AND_ORGANIZATION ( #201, #179 ) ;
#204 = EDGE_CURVE ( 'NONE', #22, #22, #223, .T. ) ;
#205 = AXIS2_PLACEMENT_3D ( 'NONE', #114, #237, #110 ) ;
#206 = DIRECTION ( 'NONE',  ( 0.0000000000000000000, -1.000000000000000000, 0.0000000000000000000 ) ) ;
#207 = ORIENTED_EDGE ( 'NONE', *, *, #195, .T. ) ;
#208 = LOCAL_TIME ( 10, 53, 50.00000000000000000, #28 ) ;
#209 = SHAPE_DEFINITION_REPRESENTATION ( #210, #138 ) ;
#210 = PRODUCT_DEFINITION_SHAPE ( 'NONE', 'NONE',  #1 ) ;
#211 = ORIENTED_EDGE ( 'NONE', *, *, #204, .F. ) ;
#212 = CARTESIAN_POINT ( 'NONE',  ( 3.046631235385167787E-14, -1.500000000000001110, 8.725898665105390251 ) ) ;
#213 = CLOSED_SHELL ( 'NONE', ( #67, #91, #51 ) ) ;
#214 = LOCAL_TIME ( 10, 53, 50.00000000000000000, #59 ) ;
#215 = DIRECTION ( 'NONE',  ( 3.491481338843133355E-15, -1.224646799147354686E-16, 1.000000000000000000 ) ) ;
#216 = DIRECTION ( 'NONE',  ( 0.0000000000000000000, 1.000000000000000000, 0.0000000000000000000 ) ) ;
#217 = DIRECTION ( 'NONE',  ( -3.491481338843133355E-15, 1.229317185094960748E-16, -1.000000000000000000 ) ) ;
#218 = LOCAL_TIME ( 10, 53, 50.00000000000000000, #232 ) ;
#219 = VERTEX_POINT ( 'NONE', #155 ) ;
#220 = APPLICATION_CONTEXT ( 'configuration controlled 3d designs of mechanical parts and assemblies' ) ;
#221 = CARTESIAN_POINT ( 'NONE',  ( 8.379555213223520053E-15, 0.3999999999999999667, 2.400000000000000355 ) ) ;
#222 = AXIS2_PLACEMENT_3D ( 'NONE', #54, #93, #74 ) ;
#223 = CIRCLE ( 'NONE', #78, 0.4000000000000002442 ) ;
#224 = COORDINATED_UNIVERSAL_TIME_OFFSET ( 1, 0, .AHEAD. ) ;
#225 = PRODUCT ( '378218', '378218', '', ( #2 ) ) ;
#226 = MANIFOLD_SOLID_BREP ( 'Corps-Déplacer/Copier1[1]', #43 ) ;
#227 = APPROVAL_STATUS ( 'not_yet_approved' ) ;
#228 = APPROVAL ( #58, 'UNSPECIFIED' ) ;
#229 = PERSON_AND_ORGANIZATION ( #201, #179 ) ;
#230 = CARTESIAN_POINT ( 'NONE',  ( 9.977042359565598907E-14, -3.512821189271551974E-15, 28.57538503376732919 ) ) ;
#231 = CONICAL_SURFACE ( 'NONE', #77, 1.500000000000000000, 0.7853981633974569387 ) ;
#232 = COORDINATED_UNIVERSAL_TIME_OFFSET ( 1, 0, .AHEAD. ) ;
#233 = EDGE_LOOP ( 'NONE', ( #188 ) ) ;
#234 = CC_DESIGN_DATE_AND_TIME_ASSIGNMENT ( #25, #160, ( #50 ) ) ;
#235 = EDGE_CURVE ( 'NONE', #79, #79, #24, .T. ) ;
#236 = EDGE_LOOP ( 'NONE', ( #47 ) ) ;
#237 = DIRECTION ( 'NONE',  ( 3.491481338843133355E-15, -1.224646799147354686E-16, 1.000000000000000000 ) ) ;
#238 = UNCERTAINTY_MEASURE_WITH_UNIT (LENGTH_MEASURE( 1.000000000000000082E-05 ), #42, 'distance_accuracy_value', 'NONE');
#239 = DIRECTION ( 'NONE',  ( -3.491481338843133355E-15, 1.224646799147354686E-16, -1.000000000000000000 ) ) ;
#240 = EDGE_LOOP ( 'NONE', ( #145 ) ) ;
#241 = VERTEX_POINT ( 'NONE', #130 ) ;
#242 = DATE_TIME_ROLE ( 'creation_date' ) ;
#243 =( NAMED_UNIT ( * ) PLANE_ANGLE_UNIT ( ) SI_UNIT ( $, .RADIAN. ) );
ENDSEC;
END-ISO-10303-21;
