ISO-10303-21;
HEADER;
FILE_DESCRIPTION (( 'STEP AP203' ),
    '1' );
FILE_NAME ('378217.step',
    '2021-12-09T09:53:50',
    ( '' ),
    ( '' ),
    'SwSTEP 2.0',
    'SolidWorks 2019',
    '' );
FILE_SCHEMA (( 'CONFIG_CONTROL_DESIGN' ));
ENDSEC;

DATA;
#1 = APPROVAL_STATUS ( 'not_yet_approved' ) ;
#2 = SECURITY_CLASSIFICATION ( '', '', #145 ) ;
#3 = CC_DESIGN_PERSON_AND_ORGANIZATION_ASSIGNMENT ( #191, #45, ( #88 ) ) ;
#4 = DIRECTION ( 'NONE',  ( 0.0000000000000000000, 1.000000000000000000, 0.0000000000000000000 ) ) ;
#5 = DIRECTION ( 'NONE',  ( -3.491481338843133355E-15, 1.229317185094960748E-16, -1.000000000000000000 ) ) ;
#6 = CARTESIAN_POINT ( 'NONE',  ( 0.0000000000000000000, 0.0000000000000000000, 0.0000000000000000000 ) ) ;
#7 = DIRECTION ( 'NONE',  ( -3.491481338843133355E-15, 1.229317185094960748E-16, -1.000000000000000000 ) ) ;
#8 = FACE_OUTER_BOUND ( 'NONE', #230, .T. ) ;
#9 = EDGE_CURVE ( 'NONE', #167, #167, #17, .T. ) ;
#10 = AXIS2_PLACEMENT_3D ( 'NONE', #138, #210, #185 ) ;
#11 = EDGE_LOOP ( 'NONE', ( #241 ) ) ;
#12 = MECHANICAL_CONTEXT ( 'NONE', #35, 'mechanical' ) ;
#13 = ORIENTED_EDGE ( 'NONE', *, *, #131, .F. ) ;
#14 = CARTESIAN_POINT ( 'NONE',  ( 7.938400183418785647E-15, -2.795034777665798849E-16, 2.273648177666931058 ) ) ;
#15 = ORGANIZATION ( 'UNSPECIFIED', 'UNSPECIFIED', '' ) ;
#16 = DIRECTION ( 'NONE',  ( 3.491481338843133355E-15, -1.229317185094960748E-16, 1.000000000000000000 ) ) ;
#17 = CIRCLE ( 'NONE', #91, 0.3500000000000000333 ) ;
#18 = ADVANCED_FACE ( 'NONE', ( #186, #8 ), #98, .T. ) ;
#19 = CARTESIAN_POINT ( 'NONE',  ( -1.432974264163827009E-30, 5.045365327139568773E-32, -4.104201412225300345E-16 ) ) ;
#20 = DATE_AND_TIME ( #93, #127 ) ;
#21 = AXIS2_PLACEMENT_3D ( 'NONE', #6, #117, #96 ) ;
#22 = ADVANCED_FACE ( 'NONE', ( #161 ), #44, .F. ) ;
#23 = COORDINATED_UNIVERSAL_TIME_OFFSET ( 1, 0, .AHEAD. ) ;
#24 =( GEOMETRIC_REPRESENTATION_CONTEXT ( 3 ) GLOBAL_UNCERTAINTY_ASSIGNED_CONTEXT ( ( #154 ) ) GLOBAL_UNIT_ASSIGNED_CONTEXT ( ( #221, #101, #197 ) ) REPRESENTATION_CONTEXT ( 'NONE', 'WORKASPACE' ) );
#25 = FACE_OUTER_BOUND ( 'NONE', #106, .T. ) ;
#26 = PLANE ( 'NONE',  #80 ) ;
#27 = PRODUCT ( '378217', '378217', '', ( #12 ) ) ;
#28 = CARTESIAN_POINT ( 'NONE',  ( 1.316288464743861212E-13, -4.616918432785527392E-15, 37.69999999999999574 ) ) ;
#29 = PERSON_AND_ORGANIZATION ( #50, #15 ) ;
#30 = ORIENTED_EDGE ( 'NONE', *, *, #237, .T. ) ;
#31 = CARTESIAN_POINT ( 'NONE',  ( 1.326762908760390170E-13, 1.199999999999995515, 37.99999999999999289 ) ) ;
#32 = COORDINATED_UNIVERSAL_TIME_OFFSET ( 1, 0, .AHEAD. ) ;
#33 = VERTEX_POINT ( 'NONE', #223 ) ;
#34 = CC_DESIGN_DATE_AND_TIME_ASSIGNMENT ( #94, #207, ( #2 ) ) ;
#35 = APPLICATION_CONTEXT ( 'configuration controlled 3d designs of mechanical parts and assemblies' ) ;
#36 = FACE_OUTER_BOUND ( 'NONE', #108, .T. ) ;
#37 = TOROIDAL_SURFACE ( 'NONE', #198, 1.350000000000000089, 1.000000000000000222 ) ;
#38 = DIRECTION ( 'NONE',  ( -3.491481338843133355E-15, 1.229317185094960748E-16, -1.000000000000000000 ) ) ;
#39 = ORIENTED_EDGE ( 'NONE', *, *, #131, .T. ) ;
#40 = FACE_OUTER_BOUND ( 'NONE', #84, .T. ) ;
#41 = APPROVAL ( #159, 'UNSPECIFIED' ) ;
#42 = CARTESIAN_POINT ( 'NONE',  ( 1.326762908760390170E-13, -4.653657836759946674E-15, 37.99999999999999289 ) ) ;
#43 = CARTESIAN_POINT ( 'NONE',  ( 3.040892668422452438E-14, -1.070669223900138614E-15, 8.709462756086278290 ) ) ;
#44 = PLANE ( 'NONE',  #10 ) ;
#45 = PERSON_AND_ORGANIZATION_ROLE ( 'creator' ) ;
#46 = CC_DESIGN_DATE_AND_TIME_ASSIGNMENT ( #107, #190, ( #155 ) ) ;
#47 = CC_DESIGN_APPROVAL ( #41, ( #88 ) ) ;
#48 = ORIENTED_EDGE ( 'NONE', *, *, #170, .T. ) ;
#49 = VERTEX_POINT ( 'NONE', #180 ) ;
#50 = PERSON ( 'UNSPECIFIED', 'UNSPECIFIED', 'UNSPECIFIED', ('UNSPECIFIED'), ('UNSPECIFIED'), ('UNSPECIFIED') ) ;
#51 = ORIENTED_EDGE ( 'NONE', *, *, #144, .F. ) ;
#52 = EDGE_CURVE ( 'NONE', #168, #168, #175, .T. ) ;
#53 = AXIS2_PLACEMENT_3D ( 'NONE', #240, #64, #216 ) ;
#54 = PERSON_AND_ORGANIZATION_ROLE ( 'creator' ) ;
#55 = FACE_OUTER_BOUND ( 'NONE', #128, .T. ) ;
#56 = DIRECTION ( 'NONE',  ( -3.491481338843133355E-15, 1.224646799147354686E-16, -1.000000000000000000 ) ) ;
#57 = APPROVAL_ROLE ( '' ) ;
#58 = ORIENTED_EDGE ( 'NONE', *, *, #237, .F. ) ;
#59 = MANIFOLD_SOLID_BREP ( 'Corps-Déplacer/Copier1[1]', #79 ) ;
#60 = CARTESIAN_POINT ( 'NONE',  ( 7.332110811570581624E-15, 1.124819836996395669E-32, 2.100000000000000089 ) ) ;
#61 = AXIS2_PLACEMENT_3D ( 'NONE', #60, #183, #99 ) ;
#62 = DIRECTION ( 'NONE',  ( -3.491481338843133355E-15, 1.224646799147354686E-16, -1.000000000000000000 ) ) ;
#63 = LOCAL_TIME ( 10, 53, 50.00000000000000000, #177 ) ;
#64 = DIRECTION ( 'NONE',  ( 0.0000000000000000000, 0.0000000000000000000, 1.000000000000000000 ) ) ;
#65 = EDGE_LOOP ( 'NONE', ( #51 ) ) ;
#66 = DIRECTION ( 'NONE',  ( -3.491481338843133355E-15, 1.224646799147354686E-16, -1.000000000000000000 ) ) ;
#67 = EDGE_LOOP ( 'NONE', ( #235 ) ) ;
#68 = CONICAL_SURFACE ( 'NONE', #208, 1.500000000000000000, 0.7853981633974569387 ) ;
#69 = APPLICATION_PROTOCOL_DEFINITION ( 'international standard', 'config_control_design', 1994, #132 ) ;
#70 = ADVANCED_FACE ( 'NONE', ( #36 ), #77, .T. ) ;
#71 = AXIS2_PLACEMENT_3D ( 'NONE', #172, #5, #118 ) ;
#72 = DIRECTION ( 'NONE',  ( 0.0000000000000000000, 1.000000000000000000, 0.0000000000000000000 ) ) ;
#73 = PERSON_AND_ORGANIZATION ( #50, #15 ) ;
#74 = CYLINDRICAL_SURFACE ( 'NONE', #21, 0.3499999999999999223 ) ;
#75 = CONICAL_SURFACE ( 'NONE', #135, 4.999999999999999112, 0.1745329251994333919 ) ;
#76 = DATE_AND_TIME ( #171, #121 ) ;
#77 = PLANE ( 'NONE',  #61 ) ;
#78 = DIRECTION ( 'NONE',  ( 4.405139264058053848E-31, 1.000000000000000000, 1.229317185094960748E-16 ) ) ;
#79 = CLOSED_SHELL ( 'NONE', ( #18, #173, #220, #136, #212, #22 ) ) ;
#80 = AXIS2_PLACEMENT_3D ( 'NONE', #242, #178, #143 ) ;
#81 = EDGE_LOOP ( 'NONE', ( #195 ) ) ;
#82 = DIRECTION ( 'NONE',  ( 4.275831445896963861E-31, 1.000000000000000000, 1.224646799147354686E-16 ) ) ;
#83 = DIRECTION ( 'NONE',  ( -3.491481338843133355E-15, 1.229317185094960748E-16, -1.000000000000000000 ) ) ;
#84 = EDGE_LOOP ( 'NONE', ( #30 ) ) ;
#85 = FACE_OUTER_BOUND ( 'NONE', #142, .T. ) ;
#86 = CALENDAR_DATE ( 2021, 9, 12 ) ;
#87 = CLOSED_SHELL ( 'NONE', ( #70, #95, #141 ) ) ;
#88 = PRODUCT_DEFINITION_FORMATION_WITH_SPECIFIED_SOURCE ( 'ANY', '', #27, .NOT_KNOWN. ) ;
#89 = EDGE_CURVE ( 'NONE', #149, #149, #203, .T. ) ;
#90 = PERSON_AND_ORGANIZATION ( #50, #15 ) ;
#91 = AXIS2_PLACEMENT_3D ( 'NONE', #19, #181, #202 ) ;
#92 = CALENDAR_DATE ( 2021, 9, 12 ) ;
#93 = CALENDAR_DATE ( 2021, 9, 12 ) ;
#94 = DATE_AND_TIME ( #86, #63 ) ;
#95 = ADVANCED_FACE ( 'NONE', ( #55, #137 ), #74, .T. ) ;
#96 = DIRECTION ( 'NONE',  ( 4.292138011278225812E-31, 1.000000000000000000, 1.229317185094960995E-16 ) ) ;
#97 = AXIS2_PLACEMENT_3D ( 'NONE', #14, #83, #165 ) ;
#98 = CYLINDRICAL_SURFACE ( 'NONE', #157, 1.500000000000000000 ) ;
#99 = DIRECTION ( 'NONE',  ( -4.275831445896963861E-31, -1.000000000000000000, -1.224646799147354686E-16 ) ) ;
#100 = DIRECTION ( 'NONE',  ( 4.275831445896963861E-31, 1.000000000000000000, 1.224646799147354686E-16 ) ) ;
#101 =( NAMED_UNIT ( * ) PLANE_ANGLE_UNIT ( ) SI_UNIT ( $, .RADIAN. ) );
#102 = PERSON_AND_ORGANIZATION ( #50, #15 ) ;
#103 = PERSON_AND_ORGANIZATION_ROLE ( 'classification_officer' ) ;
#104 = CC_DESIGN_PERSON_AND_ORGANIZATION_ASSIGNMENT ( #29, #54, ( #155 ) ) ;
#105 = CC_DESIGN_PERSON_AND_ORGANIZATION_ASSIGNMENT ( #102, #176, ( #88 ) ) ;
#106 = EDGE_LOOP ( 'NONE', ( #189 ) ) ;
#107 = DATE_AND_TIME ( #114, #140 ) ;
#108 = EDGE_LOOP ( 'NONE', ( #13 ) ) ;
#109 = CARTESIAN_POINT ( 'NONE',  ( 7.332110811570581624E-15, 0.3499999999999996447, 2.100000000000000089 ) ) ;
#110 = CIRCLE ( 'NONE', #97, 0.3651922469877919020 ) ;
#111 = CARTESIAN_POINT ( 'NONE',  ( 1.316288464743861212E-13, 1.499999999999995559, 37.69999999999999574 ) ) ;
#112 = APPROVAL_ROLE ( '' ) ;
#113 = SHAPE_DEFINITION_REPRESENTATION ( #134, #119 ) ;
#114 = CALENDAR_DATE ( 2021, 9, 12 ) ;
#115 = APPROVAL_PERSON_ORGANIZATION ( #184, #41, #225 ) ;
#116 = CC_DESIGN_PERSON_AND_ORGANIZATION_ASSIGNMENT ( #90, #166, ( #27 ) ) ;
#117 = DIRECTION ( 'NONE',  ( -3.491481338843133355E-15, 1.229317185094960748E-16, -1.000000000000000000 ) ) ;
#118 = DIRECTION ( 'NONE',  ( 0.0000000000000000000, 1.000000000000000000, 0.0000000000000000000 ) ) ;
#119 = ADVANCED_BREP_SHAPE_REPRESENTATION ( '378217', ( #59, #217, #53 ), #24 ) ;
#120 = CC_DESIGN_PERSON_AND_ORGANIZATION_ASSIGNMENT ( #193, #103, ( #2 ) ) ;
#121 = LOCAL_TIME ( 10, 53, 50.00000000000000000, #23 ) ;
#122 = AXIS2_PLACEMENT_3D ( 'NONE', #164, #148, #236 ) ;
#123 = PRODUCT_RELATED_PRODUCT_CATEGORY ( 'detail', '', ( #27 ) ) ;
#124 = CARTESIAN_POINT ( 'NONE',  ( 9.971303792602879771E-14, -3.510800694730565787E-15, 28.55894912474820657 ) ) ;
#125 = FACE_OUTER_BOUND ( 'NONE', #67, .T. ) ;
#126 = AXIS2_PLACEMENT_3D ( 'NONE', #43, #214, #163 ) ;
#127 = LOCAL_TIME ( 10, 53, 50.00000000000000000, #150 ) ;
#128 = EDGE_LOOP ( 'NONE', ( #228 ) ) ;
#129 = CARTESIAN_POINT ( 'NONE',  ( -1.282749433769088983E-30, 0.3500000000000000333, -3.673940397442063812E-16 ) ) ;
#130 = VERTEX_POINT ( 'NONE', #109 ) ;
#131 = EDGE_CURVE ( 'NONE', #130, #130, #151, .T. ) ;
#132 = APPLICATION_CONTEXT ( 'configuration controlled 3d designs of mechanical parts and assemblies' ) ;
#133 = COORDINATED_UNIVERSAL_TIME_OFFSET ( 1, 0, .AHEAD. ) ;
#134 = PRODUCT_DEFINITION_SHAPE ( 'NONE', 'NONE',  #155 ) ;
#135 = AXIS2_PLACEMENT_3D ( 'NONE', #124, #16, #194 ) ;
#136 = ADVANCED_FACE ( 'NONE', ( #25, #40 ), #37, .F. ) ;
#137 = FACE_OUTER_BOUND ( 'NONE', #200, .T. ) ;
#138 = CARTESIAN_POINT ( 'NONE',  ( 7.332110811570581624E-15, 1.124819836996395669E-32, 2.100000000000000089 ) ) ;
#139 = DIRECTION ( 'NONE',  ( -3.491481338843133355E-15, 1.224646799147354686E-16, -1.000000000000000000 ) ) ;
#140 = LOCAL_TIME ( 10, 53, 50.00000000000000000, #133 ) ;
#141 = ADVANCED_FACE ( 'NONE', ( #160 ), #188, .T. ) ;
#142 = EDGE_LOOP ( 'NONE', ( #147 ) ) ;
#143 = DIRECTION ( 'NONE',  ( 4.275831445896963861E-31, 1.000000000000000000, 1.224646799147354686E-16 ) ) ;
#144 = EDGE_CURVE ( 'NONE', #33, #33, #233, .T. ) ;
#145 = SECURITY_CLASSIFICATION_LEVEL ( 'unclassified' ) ;
#146 = FACE_OUTER_BOUND ( 'NONE', #81, .T. ) ;
#147 = ORIENTED_EDGE ( 'NONE', *, *, #89, .F. ) ;
#148 = DIRECTION ( 'NONE',  ( -3.491481338843133355E-15, 1.224646799147354686E-16, -1.000000000000000000 ) ) ;
#149 = VERTEX_POINT ( 'NONE', #31 ) ;
#150 = COORDINATED_UNIVERSAL_TIME_OFFSET ( 1, 0, .AHEAD. ) ;
#151 = CIRCLE ( 'NONE', #71, 0.3499999999999998668 ) ;
#152 = PERSON_AND_ORGANIZATION ( #50, #15 ) ;
#153 = DATE_AND_TIME ( #92, #187 ) ;
#154 = UNCERTAINTY_MEASURE_WITH_UNIT (LENGTH_MEASURE( 1.000000000000000082E-05 ), #221, 'distance_accuracy_value', 'NONE');
#155 = PRODUCT_DEFINITION ( 'UNKNOWN', '', #88, #201 ) ;
#156 = APPROVAL_PERSON_ORGANIZATION ( #152, #206, #112 ) ;
#157 = AXIS2_PLACEMENT_3D ( 'NONE', #232, #56, #100 ) ;
#158 = ORIENTED_EDGE ( 'NONE', *, *, #89, .T. ) ;
#159 = APPROVAL_STATUS ( 'not_yet_approved' ) ;
#160 = FACE_OUTER_BOUND ( 'NONE', #11, .T. ) ;
#161 = FACE_OUTER_BOUND ( 'NONE', #218, .T. ) ;
#162 = EDGE_LOOP ( 'NONE', ( #158 ) ) ;
#163 = DIRECTION ( 'NONE',  ( 0.0000000000000000000, -1.000000000000000000, 0.0000000000000000000 ) ) ;
#164 = CARTESIAN_POINT ( 'NONE',  ( 1.316288464743861212E-13, -4.616918432785527392E-15, 37.69999999999999574 ) ) ;
#165 = DIRECTION ( 'NONE',  ( 0.0000000000000000000, 1.000000000000000000, 0.0000000000000000000 ) ) ;
#166 = PERSON_AND_ORGANIZATION_ROLE ( 'design_owner' ) ;
#167 = VERTEX_POINT ( 'NONE', #129 ) ;
#168 = VERTEX_POINT ( 'NONE', #205 ) ;
#169 = CC_DESIGN_SECURITY_CLASSIFICATION ( #2, ( #88 ) ) ;
#170 = EDGE_CURVE ( 'NONE', #219, #219, #243, .T. ) ;
#171 = CALENDAR_DATE ( 2021, 9, 12 ) ;
#172 = CARTESIAN_POINT ( 'NONE',  ( 7.332110811570581624E-15, -2.581566088699417719E-16, 2.100000000000000089 ) ) ;
#173 = ADVANCED_FACE ( 'NONE', ( #238, #125 ), #68, .T. ) ;
#174 = CARTESIAN_POINT ( 'NONE',  ( 7.332110811570581624E-15, -2.168404344971008868E-16, 2.100000000000000089 ) ) ;
#175 = CIRCLE ( 'NONE', #227, 0.3499999999999998668 ) ;
#176 = PERSON_AND_ORGANIZATION_ROLE ( 'design_supplier' ) ;
#177 = COORDINATED_UNIVERSAL_TIME_OFFSET ( 1, 0, .AHEAD. ) ;
#178 = DIRECTION ( 'NONE',  ( -3.491481338843133355E-15, 1.224646799147354686E-16, -1.000000000000000000 ) ) ;
#179 = EDGE_LOOP ( 'NONE', ( #58 ) ) ;
#180 = CARTESIAN_POINT ( 'NONE',  ( 7.938400183418785647E-15, 0.3651922469877916244, 2.273648177666931058 ) ) ;
#181 = DIRECTION ( 'NONE',  ( -3.491481338843133355E-15, 1.229317185094960748E-16, -1.000000000000000000 ) ) ;
#182 = AXIS2_PLACEMENT_3D ( 'NONE', #42, #139, #72 ) ;
#183 = DIRECTION ( 'NONE',  ( 3.491481338843133355E-15, -1.224646799147354686E-16, 1.000000000000000000 ) ) ;
#184 = PERSON_AND_ORGANIZATION ( #50, #15 ) ;
#185 = DIRECTION ( 'NONE',  ( -4.275831445896963861E-31, -1.000000000000000000, -1.224646799147354686E-16 ) ) ;
#186 = FACE_OUTER_BOUND ( 'NONE', #65, .T. ) ;
#187 = LOCAL_TIME ( 10, 53, 50.00000000000000000, #32 ) ;
#188 = PLANE ( 'NONE',  #211 ) ;
#189 = ORIENTED_EDGE ( 'NONE', *, *, #52, .F. ) ;
#190 = DATE_TIME_ROLE ( 'creation_date' ) ;
#191 = PERSON_AND_ORGANIZATION ( #50, #15 ) ;
#192 = FACE_BOUND ( 'NONE', #179, .T. ) ;
#193 = PERSON_AND_ORGANIZATION ( #50, #15 ) ;
#194 = DIRECTION ( 'NONE',  ( 0.0000000000000000000, -1.000000000000000000, 0.0000000000000000000 ) ) ;
#195 = ORIENTED_EDGE ( 'NONE', *, *, #144, .T. ) ;
#196 = DIRECTION ( 'NONE',  ( 0.0000000000000000000, 1.000000000000000000, 0.0000000000000000000 ) ) ;
#197 =( NAMED_UNIT ( * ) SI_UNIT ( $, .STERADIAN. ) SOLID_ANGLE_UNIT ( ) );
#198 = AXIS2_PLACEMENT_3D ( 'NONE', #174, #7, #78 ) ;
#199 = CC_DESIGN_APPROVAL ( #229, ( #2 ) ) ;
#200 = EDGE_LOOP ( 'NONE', ( #39 ) ) ;
#201 = DESIGN_CONTEXT ( 'detailed design', #132, 'design' ) ;
#202 = DIRECTION ( 'NONE',  ( 4.292138011278227564E-31, 1.000000000000000000, 1.229317185094960995E-16 ) ) ;
#203 = CIRCLE ( 'NONE', #182, 1.200000000000000178 ) ;
#204 = CC_DESIGN_APPROVAL ( #206, ( #155 ) ) ;
#205 = CARTESIAN_POINT ( 'NONE',  ( 7.332110811570581624E-15, 0.3499999999999996447, 2.100000000000000089 ) ) ;
#206 = APPROVAL ( #1, 'UNSPECIFIED' ) ;
#207 = DATE_TIME_ROLE ( 'classification_date' ) ;
#208 = AXIS2_PLACEMENT_3D ( 'NONE', #28, #62, #196 ) ;
#209 = APPROVAL_DATE_TIME ( #76, #41 ) ;
#210 = DIRECTION ( 'NONE',  ( 3.491481338843133355E-15, -1.224646799147354686E-16, 1.000000000000000000 ) ) ;
#211 = AXIS2_PLACEMENT_3D ( 'NONE', #234, #66, #82 ) ;
#212 = ADVANCED_FACE ( 'NONE', ( #146, #192 ), #75, .T. ) ;
#213 = ORIENTED_EDGE ( 'NONE', *, *, #52, .T. ) ;
#214 = DIRECTION ( 'NONE',  ( -3.491481338843133355E-15, 1.229317185094960748E-16, -1.000000000000000000 ) ) ;
#215 = APPLICATION_PROTOCOL_DEFINITION ( 'international standard', 'config_control_design', 1994, #35 ) ;
#216 = DIRECTION ( 'NONE',  ( 1.000000000000000000, 0.0000000000000000000, 0.0000000000000000000 ) ) ;
#217 = MANIFOLD_SOLID_BREP ( 'Corps-Déplacer/Copier1[2]', #87 ) ;
#218 = EDGE_LOOP ( 'NONE', ( #213 ) ) ;
#219 = VERTEX_POINT ( 'NONE', #111 ) ;
#220 = ADVANCED_FACE ( 'NONE', ( #85 ), #26, .F. ) ;
#221 =( LENGTH_UNIT ( ) NAMED_UNIT ( * ) SI_UNIT ( .MILLI., .METRE. ) );
#222 = APPROVAL_DATE_TIME ( #153, #229 ) ;
#223 = CARTESIAN_POINT ( 'NONE',  ( 3.040892668422452438E-14, -1.500000000000001110, 8.709462756086278290 ) ) ;
#224 = APPROVAL_DATE_TIME ( #20, #206 ) ;
#225 = APPROVAL_ROLE ( '' ) ;
#226 = APPROVAL_STATUS ( 'not_yet_approved' ) ;
#227 = AXIS2_PLACEMENT_3D ( 'NONE', #231, #38, #4 ) ;
#228 = ORIENTED_EDGE ( 'NONE', *, *, #9, .F. ) ;
#229 = APPROVAL ( #226, 'UNSPECIFIED' ) ;
#230 = EDGE_LOOP ( 'NONE', ( #48 ) ) ;
#231 = CARTESIAN_POINT ( 'NONE',  ( 7.332110811570581624E-15, -2.581566088699417719E-16, 2.100000000000000089 ) ) ;
#232 = CARTESIAN_POINT ( 'NONE',  ( 0.0000000000000000000, 0.0000000000000000000, 0.0000000000000000000 ) ) ;
#233 = CIRCLE ( 'NONE', #126, 1.500000000000000000 ) ;
#234 = CARTESIAN_POINT ( 'NONE',  ( -3.206873584422722458E-31, 1.124819836996396080E-32, -9.184850993605159531E-17 ) ) ;
#235 = ORIENTED_EDGE ( 'NONE', *, *, #170, .F. ) ;
#236 = DIRECTION ( 'NONE',  ( 0.0000000000000000000, 1.000000000000000000, 0.0000000000000000000 ) ) ;
#237 = EDGE_CURVE ( 'NONE', #49, #49, #110, .T. ) ;
#238 = FACE_BOUND ( 'NONE', #162, .T. ) ;
#239 = APPROVAL_PERSON_ORGANIZATION ( #73, #229, #57 ) ;
#240 = CARTESIAN_POINT ( 'NONE',  ( 0.0000000000000000000, 0.0000000000000000000, 0.0000000000000000000 ) ) ;
#241 = ORIENTED_EDGE ( 'NONE', *, *, #9, .T. ) ;
#242 = CARTESIAN_POINT ( 'NONE',  ( 1.326762908760390170E-13, 2.197316402903955485E-13, 37.99999999999999289 ) ) ;
#243 = CIRCLE ( 'NONE', #122, 1.500000000000000000 ) ;
ENDSEC;
END-ISO-10303-21;
