ISO-10303-21;
HEADER;
FILE_DESCRIPTION (( 'STEP AP203' ),
    '1' );
FILE_NAME ('378216.step',
    '2021-12-09T09:53:49',
    ( '' ),
    ( '' ),
    'SwSTEP 2.0',
    'SolidWorks 2019',
    '' );
FILE_SCHEMA (( 'CONFIG_CONTROL_DESIGN' ));
ENDSEC;

DATA;
#1 = COORDINATED_UNIVERSAL_TIME_OFFSET ( 1, 0, .AHEAD. ) ;
#2 = PERSON_AND_ORGANIZATION ( #66, #192 ) ;
#3 = PRODUCT_DEFINITION ( 'UNKNOWN', '', #199, #210 ) ;
#4 = DIRECTION ( 'NONE',  ( -3.491481338843133355E-15, 1.224646799147354686E-16, -1.000000000000000000 ) ) ;
#5 = PERSON_AND_ORGANIZATION_ROLE ( 'creator' ) ;
#6 = CARTESIAN_POINT ( 'NONE',  ( 6.284666409917640040E-15, -2.602085213965210149E-16, 1.800000000000000044 ) ) ;
#7 = ADVANCED_FACE ( 'NONE', ( #96 ), #22, .F. ) ;
#8 = EDGE_LOOP ( 'NONE', ( #87 ) ) ;
#9 = AXIS2_PLACEMENT_3D ( 'NONE', #185, #145, #224 ) ;
#10 = APPROVAL ( #217, 'UNSPECIFIED' ) ;
#11 = EDGE_LOOP ( 'NONE', ( #100 ) ) ;
#12 = FACE_OUTER_BOUND ( 'NONE', #125, .T. ) ;
#13 = AXIS2_PLACEMENT_3D ( 'NONE', #6, #94, #42 ) ;
#14 = ORIENTED_EDGE ( 'NONE', *, *, #107, .T. ) ;
#15 = PLANE ( 'NONE',  #20 ) ;
#16 = LOCAL_TIME ( 10, 53, 49.00000000000000000, #134 ) ;
#17 = VERTEX_POINT ( 'NONE', #206 ) ;
#18 = SECURITY_CLASSIFICATION_LEVEL ( 'unclassified' ) ;
#19 = UNCERTAINTY_MEASURE_WITH_UNIT (LENGTH_MEASURE( 1.000000000000000082E-05 ), #209, 'distance_accuracy_value', 'NONE');
#20 = AXIS2_PLACEMENT_3D ( 'NONE', #48, #243, #128 ) ;
#21 = PERSON_AND_ORGANIZATION ( #66, #192 ) ;
#22 = PLANE ( 'NONE',  #13 ) ;
#23 = COORDINATED_UNIVERSAL_TIME_OFFSET ( 1, 0, .AHEAD. ) ;
#24 = CIRCLE ( 'NONE', #43, 0.3000000000000001554 ) ;
#25 = ADVANCED_FACE ( 'NONE', ( #156, #174 ), #58, .T. ) ;
#26 = CALENDAR_DATE ( 2021, 9, 12 ) ;
#27 = DIRECTION ( 'NONE',  ( -3.491481338843133355E-15, 1.229317185094960748E-16, -1.000000000000000000 ) ) ;
#28 = ORIENTED_EDGE ( 'NONE', *, *, #59, .T. ) ;
#29 = DIRECTION ( 'NONE',  ( 0.0000000000000000000, -1.000000000000000000, 0.0000000000000000000 ) ) ;
#30 = AXIS2_PLACEMENT_3D ( 'NONE', #176, #27, #239 ) ;
#31 = CC_DESIGN_PERSON_AND_ORGANIZATION_ASSIGNMENT ( #56, #170, ( #199 ) ) ;
#32 = EDGE_LOOP ( 'NONE', ( #175 ) ) ;
#33 = CARTESIAN_POINT ( 'NONE',  ( 3.035154101459735826E-14, -1.068648729359153216E-15, 8.693026847067162777 ) ) ;
#34 = FACE_BOUND ( 'NONE', #203, .T. ) ;
#35 = CYLINDRICAL_SURFACE ( 'NONE', #163, 0.3000000000000000444 ) ;
#36 = CARTESIAN_POINT ( 'NONE',  ( 3.035154101459735826E-14, -1.500000000000001110, 8.693026847067162777 ) ) ;
#37 = EDGE_CURVE ( 'NONE', #49, #49, #123, .T. ) ;
#38 = MANIFOLD_SOLID_BREP ( 'Corps-Déplacer/Copier1[2]', #202 ) ;
#39 = APPROVAL_ROLE ( '' ) ;
#40 = DIRECTION ( 'NONE',  ( 0.0000000000000000000, 1.000000000000000000, 0.0000000000000000000 ) ) ;
#41 = DIRECTION ( 'NONE',  ( -3.491481338843133355E-15, 1.229317185094960748E-16, -1.000000000000000000 ) ) ;
#42 = DIRECTION ( 'NONE',  ( -4.275831445896963861E-31, -1.000000000000000000, -1.224646799147354686E-16 ) ) ;
#43 = AXIS2_PLACEMENT_3D ( 'NONE', #234, #41, #40 ) ;
#44 = EDGE_CURVE ( 'NONE', #50, #50, #159, .T. ) ;
#45 = ORIENTED_EDGE ( 'NONE', *, *, #211, .F. ) ;
#46 = CC_DESIGN_PERSON_AND_ORGANIZATION_ASSIGNMENT ( #75, #152, ( #76 ) ) ;
#47 = AXIS2_PLACEMENT_3D ( 'NONE', #114, #196, #52 ) ;
#48 = CARTESIAN_POINT ( 'NONE',  ( 6.284666409917640040E-15, -2.602085213965210149E-16, 1.800000000000000044 ) ) ;
#49 = VERTEX_POINT ( 'NONE', #226 ) ;
#50 = VERTEX_POINT ( 'NONE', #106 ) ;
#51 = VERTEX_POINT ( 'NONE', #36 ) ;
#52 = DIRECTION ( 'NONE',  ( 1.000000000000000000, 0.0000000000000000000, 0.0000000000000000000 ) ) ;
#53 = PERSON_AND_ORGANIZATION ( #66, #192 ) ;
#54 = LOCAL_TIME ( 10, 53, 49.00000000000000000, #78 ) ;
#55 = APPLICATION_PROTOCOL_DEFINITION ( 'international standard', 'config_control_design', 1994, #188 ) ;
#56 = PERSON_AND_ORGANIZATION ( #66, #192 ) ;
#57 = DIRECTION ( 'NONE',  ( 4.292138011278227564E-31, 1.000000000000000000, 1.229317185094960995E-16 ) ) ;
#58 = CYLINDRICAL_SURFACE ( 'NONE', #143, 1.500000000000000000 ) ;
#59 = EDGE_CURVE ( 'NONE', #208, #208, #24, .T. ) ;
#60 = CIRCLE ( 'NONE', #111, 0.3151922469877916910 ) ;
#61 = DATE_TIME_ROLE ( 'classification_date' ) ;
#62 = EDGE_LOOP ( 'NONE', ( #162 ) ) ;
#63 = FACE_OUTER_BOUND ( 'NONE', #32, .T. ) ;
#64 = ORIENTED_EDGE ( 'NONE', *, *, #169, .T. ) ;
#65 = FACE_OUTER_BOUND ( 'NONE', #62, .T. ) ;
#66 = PERSON ( 'UNSPECIFIED', 'UNSPECIFIED', 'UNSPECIFIED', ('UNSPECIFIED'), ('UNSPECIFIED'), ('UNSPECIFIED') ) ;
#67 = DIRECTION ( 'NONE',  ( -3.491481338843133355E-15, 1.229317185094960748E-16, -1.000000000000000000 ) ) ;
#68 = APPROVAL_PERSON_ORGANIZATION ( #21, #113, #39 ) ;
#69 = DIRECTION ( 'NONE',  ( -3.491481338843133355E-15, 1.229317185094960748E-16, -1.000000000000000000 ) ) ;
#70 = ADVANCED_FACE ( 'NONE', ( #139, #120 ), #197, .F. ) ;
#71 = CARTESIAN_POINT ( 'NONE',  ( 6.890955781765842485E-15, 0.3151922469877914690, 1.973648177666929904 ) ) ;
#72 = CIRCLE ( 'NONE', #207, 1.500000000000000000 ) ;
#73 = CC_DESIGN_PERSON_AND_ORGANIZATION_ASSIGNMENT ( #133, #213, ( #227 ) ) ;
#74 = CALENDAR_DATE ( 2021, 9, 12 ) ;
#75 = PERSON_AND_ORGANIZATION ( #66, #192 ) ;
#76 = SECURITY_CLASSIFICATION ( '', '', #18 ) ;
#77 = DIRECTION ( 'NONE',  ( -3.491481338843133355E-15, 1.224646799147354686E-16, -1.000000000000000000 ) ) ;
#78 = COORDINATED_UNIVERSAL_TIME_OFFSET ( 1, 0, .AHEAD. ) ;
#79 = APPROVAL_ROLE ( '' ) ;
#80 = CALENDAR_DATE ( 2021, 9, 12 ) ;
#81 = CARTESIAN_POINT ( 'NONE',  ( 6.284666409917640040E-15, -2.212770933170929298E-16, 1.800000000000000044 ) ) ;
#82 = APPLICATION_CONTEXT ( 'configuration controlled 3d designs of mechanical parts and assemblies' ) ;
#83 = DATE_AND_TIME ( #26, #186 ) ;
#84 = AXIS2_PLACEMENT_3D ( 'NONE', #88, #222, #223 ) ;
#85 = FACE_BOUND ( 'NONE', #141, .T. ) ;
#86 = ORIENTED_EDGE ( 'NONE', *, *, #44, .F. ) ;
#87 = ORIENTED_EDGE ( 'NONE', *, *, #107, .F. ) ;
#88 = CARTESIAN_POINT ( 'NONE',  ( 1.316288464743861212E-13, -4.616918432785527392E-15, 37.69999999999999574 ) ) ;
#89 = APPROVAL_PERSON_ORGANIZATION ( #228, #242, #79 ) ;
#90 = FACE_OUTER_BOUND ( 'NONE', #11, .T. ) ;
#91 = CC_DESIGN_PERSON_AND_ORGANIZATION_ASSIGNMENT ( #53, #5, ( #3 ) ) ;
#92 = APPROVAL_STATUS ( 'not_yet_approved' ) ;
#93 = APPROVAL_DATE_TIME ( #232, #242 ) ;
#94 = DIRECTION ( 'NONE',  ( 3.491481338843133355E-15, -1.224646799147354686E-16, 1.000000000000000000 ) ) ;
#95 = CALENDAR_DATE ( 2021, 9, 12 ) ;
#96 = FACE_OUTER_BOUND ( 'NONE', #201, .T. ) ;
#97 = EDGE_LOOP ( 'NONE', ( #178 ) ) ;
#98 = LOCAL_TIME ( 10, 53, 49.00000000000000000, #1 ) ;
#99 = DIRECTION ( 'NONE',  ( 0.0000000000000000000, 1.000000000000000000, 0.0000000000000000000 ) ) ;
#100 = ORIENTED_EDGE ( 'NONE', *, *, #44, .T. ) ;
#101 = PLANE ( 'NONE',  #233 ) ;
#102 = ADVANCED_FACE ( 'NONE', ( #182 ), #101, .T. ) ;
#103 = EDGE_LOOP ( 'NONE', ( #86 ) ) ;
#104 = DIRECTION ( 'NONE',  ( -3.491481338843133355E-15, 1.224646799147354686E-16, -1.000000000000000000 ) ) ;
#105 = EDGE_LOOP ( 'NONE', ( #14 ) ) ;
#106 = CARTESIAN_POINT ( 'NONE',  ( 6.284666409917640040E-15, 0.2999999999999999334, 1.800000000000000044 ) ) ;
#107 = EDGE_CURVE ( 'NONE', #17, #17, #166, .T. ) ;
#108 = APPROVAL_DATE_TIME ( #146, #10 ) ;
#109 = VERTEX_POINT ( 'NONE', #189 ) ;
#110 = AXIS2_PLACEMENT_3D ( 'NONE', #171, #77, #99 ) ;
#111 = AXIS2_PLACEMENT_3D ( 'NONE', #130, #132, #205 ) ;
#112 = DATE_TIME_ROLE ( 'creation_date' ) ;
#113 = APPROVAL ( #92, 'UNSPECIFIED' ) ;
#114 = CARTESIAN_POINT ( 'NONE',  ( 0.0000000000000000000, 0.0000000000000000000, 0.0000000000000000000 ) ) ;
#115 = CLOSED_SHELL ( 'NONE', ( #25, #235, #127, #70, #117, #7 ) ) ;
#116 = PERSON_AND_ORGANIZATION ( #66, #192 ) ;
#117 = ADVANCED_FACE ( 'NONE', ( #12, #85 ), #173, .T. ) ;
#118 = DIRECTION ( 'NONE',  ( 3.491481338843133355E-15, -1.229317185094960748E-16, 1.000000000000000000 ) ) ;
#119 = MANIFOLD_SOLID_BREP ( 'Corps-Déplacer/Copier1[1]', #115 ) ;
#120 = FACE_OUTER_BOUND ( 'NONE', #160, .T. ) ;
#121 = CC_DESIGN_APPROVAL ( #10, ( #76 ) ) ;
#122 = DIRECTION ( 'NONE',  ( 4.275831445896963861E-31, 1.000000000000000000, 1.224646799147354686E-16 ) ) ;
#123 = CIRCLE ( 'NONE', #110, 1.200000000000000178 ) ;
#124 = AXIS2_PLACEMENT_3D ( 'NONE', #161, #118, #29 ) ;
#125 = EDGE_LOOP ( 'NONE', ( #181 ) ) ;
#126 = DIRECTION ( 'NONE',  ( 4.275831445896963861E-31, 1.000000000000000000, 1.224646799147354686E-16 ) ) ;
#127 = ADVANCED_FACE ( 'NONE', ( #63 ), #140, .F. ) ;
#128 = DIRECTION ( 'NONE',  ( -4.275831445896963861E-31, -1.000000000000000000, -1.224646799147354686E-16 ) ) ;
#129 = CARTESIAN_POINT ( 'NONE',  ( 6.284666409917640040E-15, 0.2999999999999999334, 1.800000000000000044 ) ) ;
#130 = CARTESIAN_POINT ( 'NONE',  ( 6.890955781765842485E-15, -2.426239622137309195E-16, 1.973648177666929904 ) ) ;
#131 = CONICAL_SURFACE ( 'NONE', #9, 1.500000000000000000, 0.7853981633974569387 ) ;
#132 = DIRECTION ( 'NONE',  ( -3.491481338843133355E-15, 1.229317185094960748E-16, -1.000000000000000000 ) ) ;
#133 = PERSON_AND_ORGANIZATION ( #66, #192 ) ;
#134 = COORDINATED_UNIVERSAL_TIME_OFFSET ( 1, 0, .AHEAD. ) ;
#135 = PERSON_AND_ORGANIZATION_ROLE ( 'design_supplier' ) ;
#136 = ADVANCED_FACE ( 'NONE', ( #144, #90 ), #35, .T. ) ;
#137 = CARTESIAN_POINT ( 'NONE',  ( 0.0000000000000000000, 0.0000000000000000000, 0.0000000000000000000 ) ) ;
#138 = CC_DESIGN_PERSON_AND_ORGANIZATION_ASSIGNMENT ( #2, #135, ( #199 ) ) ;
#139 = FACE_OUTER_BOUND ( 'NONE', #238, .T. ) ;
#140 = PLANE ( 'NONE',  #180 ) ;
#141 = EDGE_LOOP ( 'NONE', ( #45 ) ) ;
#142 =( NAMED_UNIT ( * ) SI_UNIT ( $, .STERADIAN. ) SOLID_ANGLE_UNIT ( ) );
#143 = AXIS2_PLACEMENT_3D ( 'NONE', #137, #4, #122 ) ;
#144 = FACE_OUTER_BOUND ( 'NONE', #8, .T. ) ;
#145 = DIRECTION ( 'NONE',  ( -3.491481338843133355E-15, 1.224646799147354686E-16, -1.000000000000000000 ) ) ;
#146 = DATE_AND_TIME ( #80, #151 ) ;
#147 = AXIS2_PLACEMENT_3D ( 'NONE', #81, #237, #218 ) ;
#148 =( NAMED_UNIT ( * ) PLANE_ANGLE_UNIT ( ) SI_UNIT ( $, .RADIAN. ) );
#149 = DATE_AND_TIME ( #74, #98 ) ;
#150 = CC_DESIGN_DATE_AND_TIME_ASSIGNMENT ( #83, #61, ( #76 ) ) ;
#151 = LOCAL_TIME ( 10, 53, 49.00000000000000000, #23 ) ;
#152 = PERSON_AND_ORGANIZATION_ROLE ( 'classification_officer' ) ;
#153 = APPROVAL_STATUS ( 'not_yet_approved' ) ;
#154 = CARTESIAN_POINT ( 'NONE',  ( -3.206873584422722458E-31, 1.124819836996396080E-32, -9.184850993605159531E-17 ) ) ;
#155 =( GEOMETRIC_REPRESENTATION_CONTEXT ( 3 ) GLOBAL_UNCERTAINTY_ASSIGNED_CONTEXT ( ( #19 ) ) GLOBAL_UNIT_ASSIGNED_CONTEXT ( ( #209, #148, #142 ) ) REPRESENTATION_CONTEXT ( 'NONE', 'WORKASPACE' ) );
#156 = FACE_OUTER_BOUND ( 'NONE', #97, .T. ) ;
#157 = ADVANCED_BREP_SHAPE_REPRESENTATION ( '378216', ( #119, #38, #47 ), #155 ) ;
#158 = APPROVAL_ROLE ( '' ) ;
#159 = CIRCLE ( 'NONE', #147, 0.3000000000000001554 ) ;
#160 = EDGE_LOOP ( 'NONE', ( #183 ) ) ;
#161 = CARTESIAN_POINT ( 'NONE',  ( 9.965565225640164421E-14, -3.508780200189580784E-15, 28.54251321572909461 ) ) ;
#162 = ORIENTED_EDGE ( 'NONE', *, *, #169, .F. ) ;
#163 = AXIS2_PLACEMENT_3D ( 'NONE', #204, #67, #184 ) ;
#164 = FACE_OUTER_BOUND ( 'NONE', #103, .T. ) ;
#165 = VERTEX_POINT ( 'NONE', #71 ) ;
#166 = CIRCLE ( 'NONE', #216, 0.2999999999999999334 ) ;
#167 = APPROVAL_PERSON_ORGANIZATION ( #116, #10, #158 ) ;
#168 = DATE_AND_TIME ( #95, #54 ) ;
#169 = EDGE_CURVE ( 'NONE', #109, #109, #229, .T. ) ;
#170 = PERSON_AND_ORGANIZATION_ROLE ( 'creator' ) ;
#171 = CARTESIAN_POINT ( 'NONE',  ( 1.326762908760390170E-13, -4.653657836759946674E-15, 37.99999999999999289 ) ) ;
#172 = APPROVAL_DATE_TIME ( #168, #113 ) ;
#173 = CONICAL_SURFACE ( 'NONE', #124, 4.999999999999999112, 0.1745329251994333641 ) ;
#174 = FACE_OUTER_BOUND ( 'NONE', #240, .T. ) ;
#175 = ORIENTED_EDGE ( 'NONE', *, *, #37, .F. ) ;
#176 = CARTESIAN_POINT ( 'NONE',  ( 6.284666409917639251E-15, -2.168404344971008868E-16, 1.799999999999999822 ) ) ;
#177 = ADVANCED_FACE ( 'NONE', ( #164 ), #15, .T. ) ;
#178 = ORIENTED_EDGE ( 'NONE', *, *, #231, .F. ) ;
#179 = DIRECTION ( 'NONE',  ( -3.491481338843133355E-15, 1.229317185094960748E-16, -1.000000000000000000 ) ) ;
#180 = AXIS2_PLACEMENT_3D ( 'NONE', #220, #104, #126 ) ;
#181 = ORIENTED_EDGE ( 'NONE', *, *, #231, .T. ) ;
#182 = FACE_OUTER_BOUND ( 'NONE', #105, .T. ) ;
#183 = ORIENTED_EDGE ( 'NONE', *, *, #211, .T. ) ;
#184 = DIRECTION ( 'NONE',  ( 4.292138011278225812E-31, 1.000000000000000000, 1.229317185094960748E-16 ) ) ;
#185 = CARTESIAN_POINT ( 'NONE',  ( 1.316288464743861212E-13, -4.616918432785527392E-15, 37.69999999999999574 ) ) ;
#186 = LOCAL_TIME ( 10, 53, 49.00000000000000000, #230 ) ;
#187 = CC_DESIGN_APPROVAL ( #242, ( #199 ) ) ;
#188 = APPLICATION_CONTEXT ( 'configuration controlled 3d designs of mechanical parts and assemblies' ) ;
#189 = CARTESIAN_POINT ( 'NONE',  ( 1.316288464743861212E-13, 1.499999999999995559, 37.69999999999999574 ) ) ;
#190 = CC_DESIGN_DATE_AND_TIME_ASSIGNMENT ( #149, #112, ( #3 ) ) ;
#191 = MECHANICAL_CONTEXT ( 'NONE', #82, 'mechanical' ) ;
#192 = ORGANIZATION ( 'UNSPECIFIED', 'UNSPECIFIED', '' ) ;
#193 = PRODUCT_RELATED_PRODUCT_CATEGORY ( 'detail', '', ( #227 ) ) ;
#194 = APPLICATION_PROTOCOL_DEFINITION ( 'international standard', 'config_control_design', 1994, #82 ) ;
#195 = CC_DESIGN_SECURITY_CLASSIFICATION ( #76, ( #199 ) ) ;
#196 = DIRECTION ( 'NONE',  ( 0.0000000000000000000, 0.0000000000000000000, 1.000000000000000000 ) ) ;
#197 = TOROIDAL_SURFACE ( 'NONE', #30, 1.300000000000000044, 1.000000000000000000 ) ;
#198 = DIRECTION ( 'NONE',  ( -3.491481338843133355E-15, 1.224646799147354686E-16, -1.000000000000000000 ) ) ;
#199 = PRODUCT_DEFINITION_FORMATION_WITH_SPECIFIED_SOURCE ( 'ANY', '', #227, .NOT_KNOWN. ) ;
#200 = CARTESIAN_POINT ( 'NONE',  ( -1.411513574107435863E-30, 4.969804290061079184E-32, -4.042735552970551988E-16 ) ) ;
#201 = EDGE_LOOP ( 'NONE', ( #28 ) ) ;
#202 = CLOSED_SHELL ( 'NONE', ( #177, #136, #102 ) ) ;
#203 = EDGE_LOOP ( 'NONE', ( #219 ) ) ;
#204 = CARTESIAN_POINT ( 'NONE',  ( 0.0000000000000000000, 0.0000000000000000000, 0.0000000000000000000 ) ) ;
#205 = DIRECTION ( 'NONE',  ( 0.0000000000000000000, 1.000000000000000000, 0.0000000000000000000 ) ) ;
#206 = CARTESIAN_POINT ( 'NONE',  ( -1.282749433769088983E-30, 0.2999999999999999334, -3.673940397442063812E-16 ) ) ;
#207 = AXIS2_PLACEMENT_3D ( 'NONE', #33, #69, #225 ) ;
#208 = VERTEX_POINT ( 'NONE', #129 ) ;
#209 =( LENGTH_UNIT ( ) NAMED_UNIT ( * ) SI_UNIT ( .MILLI., .METRE. ) );
#210 = DESIGN_CONTEXT ( 'detailed design', #188, 'design' ) ;
#211 = EDGE_CURVE ( 'NONE', #165, #165, #60, .T. ) ;
#212 = PRODUCT_DEFINITION_SHAPE ( 'NONE', 'NONE',  #3 ) ;
#213 = PERSON_AND_ORGANIZATION_ROLE ( 'design_owner' ) ;
#214 = CC_DESIGN_APPROVAL ( #113, ( #3 ) ) ;
#215 = CALENDAR_DATE ( 2021, 9, 12 ) ;
#216 = AXIS2_PLACEMENT_3D ( 'NONE', #200, #179, #57 ) ;
#217 = APPROVAL_STATUS ( 'not_yet_approved' ) ;
#218 = DIRECTION ( 'NONE',  ( 0.0000000000000000000, 1.000000000000000000, 0.0000000000000000000 ) ) ;
#219 = ORIENTED_EDGE ( 'NONE', *, *, #37, .T. ) ;
#220 = CARTESIAN_POINT ( 'NONE',  ( 1.326762908760390170E-13, 2.197316402903955485E-13, 37.99999999999999289 ) ) ;
#221 = SHAPE_DEFINITION_REPRESENTATION ( #212, #157 ) ;
#222 = DIRECTION ( 'NONE',  ( -3.491481338843133355E-15, 1.224646799147354686E-16, -1.000000000000000000 ) ) ;
#223 = DIRECTION ( 'NONE',  ( 0.0000000000000000000, 1.000000000000000000, 0.0000000000000000000 ) ) ;
#224 = DIRECTION ( 'NONE',  ( 0.0000000000000000000, 1.000000000000000000, 0.0000000000000000000 ) ) ;
#225 = DIRECTION ( 'NONE',  ( 0.0000000000000000000, -1.000000000000000000, 0.0000000000000000000 ) ) ;
#226 = CARTESIAN_POINT ( 'NONE',  ( 1.326762908760390170E-13, 1.199999999999995515, 37.99999999999999289 ) ) ;
#227 = PRODUCT ( '378216', '378216', '', ( #191 ) ) ;
#228 = PERSON_AND_ORGANIZATION ( #66, #192 ) ;
#229 = CIRCLE ( 'NONE', #84, 1.500000000000000000 ) ;
#230 = COORDINATED_UNIVERSAL_TIME_OFFSET ( 1, 0, .AHEAD. ) ;
#231 = EDGE_CURVE ( 'NONE', #51, #51, #72, .T. ) ;
#232 = DATE_AND_TIME ( #215, #16 ) ;
#233 = AXIS2_PLACEMENT_3D ( 'NONE', #154, #198, #236 ) ;
#234 = CARTESIAN_POINT ( 'NONE',  ( 6.284666409917640040E-15, -2.212770933170929298E-16, 1.800000000000000044 ) ) ;
#235 = ADVANCED_FACE ( 'NONE', ( #34, #65 ), #131, .T. ) ;
#236 = DIRECTION ( 'NONE',  ( 4.275831445896963861E-31, 1.000000000000000000, 1.224646799147354686E-16 ) ) ;
#237 = DIRECTION ( 'NONE',  ( -3.491481338843133355E-15, 1.229317185094960748E-16, -1.000000000000000000 ) ) ;
#238 = EDGE_LOOP ( 'NONE', ( #241 ) ) ;
#239 = DIRECTION ( 'NONE',  ( 4.349866912154876844E-31, 1.000000000000000000, 1.229317185094960748E-16 ) ) ;
#240 = EDGE_LOOP ( 'NONE', ( #64 ) ) ;
#241 = ORIENTED_EDGE ( 'NONE', *, *, #59, .F. ) ;
#242 = APPROVAL ( #153, 'UNSPECIFIED' ) ;
#243 = DIRECTION ( 'NONE',  ( 3.491481338843133355E-15, -1.224646799147354686E-16, 1.000000000000000000 ) ) ;
ENDSEC;
END-ISO-10303-21;
