ISO-10303-21;
HEADER;
FILE_DESCRIPTION (( 'STEP AP203' ),
    '1' );
FILE_NAME ('378215.step',
    '2021-12-09T09:53:48',
    ( '' ),
    ( '' ),
    'SwSTEP 2.0',
    'SolidWorks 2019',
    '' );
FILE_SCHEMA (( 'CONFIG_CONTROL_DESIGN' ));
ENDSEC;

DATA;
#1 = MANIFOLD_SOLID_BREP ( 'Corps-Déplacer/Copier1[1]', #38 ) ;
#2 = ADVANCED_FACE ( 'NONE', ( #113 ), #178, .T. ) ;
#3 = APPROVAL_PERSON_ORGANIZATION ( #184, #63, #139 ) ;
#4 = DIRECTION ( 'NONE',  ( -3.491481338843133355E-15, 1.229317185094960748E-16, -1.000000000000000000 ) ) ;
#5 = DIRECTION ( 'NONE',  ( 4.351149776618801722E-31, 1.000000000000000000, 1.229317185094960748E-16 ) ) ;
#6 = CYLINDRICAL_SURFACE ( 'NONE', #137, 0.2500000000000000000 ) ;
#7 = ORGANIZATION ( 'UNSPECIFIED', 'UNSPECIFIED', '' ) ;
#8 = ORIENTED_EDGE ( 'NONE', *, *, #79, .T. ) ;
#9 = PERSON_AND_ORGANIZATION ( #117, #7 ) ;
#10 = EDGE_CURVE ( 'NONE', #83, #83, #174, .T. ) ;
#11 = EDGE_LOOP ( 'NONE', ( #71 ) ) ;
#12 = VERTEX_POINT ( 'NONE', #165 ) ;
#13 = DIRECTION ( 'NONE',  ( 3.491481338843133355E-15, -1.224646799147354686E-16, 1.000000000000000000 ) ) ;
#14 = PRODUCT_RELATED_PRODUCT_CATEGORY ( 'detail', '', ( #169 ) ) ;
#15 = SECURITY_CLASSIFICATION ( '', '', #140 ) ;
#16 = DATE_TIME_ROLE ( 'classification_date' ) ;
#17 = APPROVAL_DATE_TIME ( #120, #63 ) ;
#18 = AXIS2_PLACEMENT_3D ( 'NONE', #130, #197, #51 ) ;
#19 = DIRECTION ( 'NONE',  ( 3.491481338843133355E-15, -1.224646799147354686E-16, 1.000000000000000000 ) ) ;
#20 = AXIS2_PLACEMENT_3D ( 'NONE', #193, #160, #127 ) ;
#21 = CARTESIAN_POINT ( 'NONE',  ( 5.237222008264698455E-15, -1.843975777642440629E-16, 1.499999999999999556 ) ) ;
#22 = ORIENTED_EDGE ( 'NONE', *, *, #50, .F. ) ;
#23 = FACE_BOUND ( 'NONE', #235, .T. ) ;
#24 = EDGE_LOOP ( 'NONE', ( #233 ) ) ;
#25 = DIRECTION ( 'NONE',  ( 4.292138011278224060E-31, 1.000000000000000000, 1.229317185094960255E-16 ) ) ;
#26 = DIRECTION ( 'NONE',  ( -3.491481338843133355E-15, 1.224646799147354686E-16, -1.000000000000000000 ) ) ;
#27 = LOCAL_TIME ( 10, 53, 48.00000000000000000, #136 ) ;
#28 = ORIENTED_EDGE ( 'NONE', *, *, #79, .F. ) ;
#29 = EDGE_CURVE ( 'NONE', #66, #66, #181, .T. ) ;
#30 = CALENDAR_DATE ( 2021, 9, 12 ) ;
#31 = EDGE_LOOP ( 'NONE', ( #124 ) ) ;
#32 = EDGE_LOOP ( 'NONE', ( #55 ) ) ;
#33 = CC_DESIGN_PERSON_AND_ORGANIZATION_ASSIGNMENT ( #224, #153, ( #15 ) ) ;
#34 = PRODUCT_DEFINITION_SHAPE ( 'NONE', 'NONE',  #39 ) ;
#35 = AXIS2_PLACEMENT_3D ( 'NONE', #70, #72, #215 ) ;
#36 =( LENGTH_UNIT ( ) NAMED_UNIT ( * ) SI_UNIT ( .MILLI., .METRE. ) );
#37 = DATE_TIME_ROLE ( 'creation_date' ) ;
#38 = CLOSED_SHELL ( 'NONE', ( #86, #59, #99, #144, #190, #105 ) ) ;
#39 = PRODUCT_DEFINITION ( 'UNKNOWN', '', #138, #67 ) ;
#40 = COORDINATED_UNIVERSAL_TIME_OFFSET ( 1, 0, .AHEAD. ) ;
#41 = CONICAL_SURFACE ( 'NONE', #20, 4.999999999999999112, 0.1745329251994333919 ) ;
#42 = CC_DESIGN_APPROVAL ( #109, ( #138 ) ) ;
#43 = APPROVAL_DATE_TIME ( #60, #109 ) ;
#44 = DIRECTION ( 'NONE',  ( -3.491481338843133355E-15, 1.224646799147354686E-16, -1.000000000000000000 ) ) ;
#45 = AXIS2_PLACEMENT_3D ( 'NONE', #69, #108, #5 ) ;
#46 = LOCAL_TIME ( 10, 53, 48.00000000000000000, #58 ) ;
#47 = CARTESIAN_POINT ( 'NONE',  ( 0.0000000000000000000, 0.0000000000000000000, 0.0000000000000000000 ) ) ;
#48 = FACE_OUTER_BOUND ( 'NONE', #128, .T. ) ;
#49 = FACE_OUTER_BOUND ( 'NONE', #158, .T. ) ;
#50 = EDGE_CURVE ( 'NONE', #76, #76, #95, .T. ) ;
#51 = DIRECTION ( 'NONE',  ( 0.0000000000000000000, -1.000000000000000000, 0.0000000000000000000 ) ) ;
#52 = DIRECTION ( 'NONE',  ( -3.491481338843133355E-15, 1.224646799147354686E-16, -1.000000000000000000 ) ) ;
#53 = MECHANICAL_CONTEXT ( 'NONE', #241, 'mechanical' ) ;
#54 = CC_DESIGN_DATE_AND_TIME_ASSIGNMENT ( #186, #16, ( #15 ) ) ;
#55 = ORIENTED_EDGE ( 'NONE', *, *, #203, .F. ) ;
#56 = APPROVAL_PERSON_ORGANIZATION ( #114, #237, #198 ) ;
#57 = VERTEX_POINT ( 'NONE', #168 ) ;
#58 = COORDINATED_UNIVERSAL_TIME_OFFSET ( 1, 0, .AHEAD. ) ;
#59 = ADVANCED_FACE ( 'NONE', ( #166, #238 ), #100, .T. ) ;
#60 = DATE_AND_TIME ( #172, #46 ) ;
#61 = AXIS2_PLACEMENT_3D ( 'NONE', #125, #90, #142 ) ;
#62 = APPROVAL_STATUS ( 'not_yet_approved' ) ;
#63 = APPROVAL ( #62, 'UNSPECIFIED' ) ;
#64 = SHAPE_DEFINITION_REPRESENTATION ( #34, #151 ) ;
#65 = CC_DESIGN_SECURITY_CLASSIFICATION ( #15, ( #138 ) ) ;
#66 = VERTEX_POINT ( 'NONE', #141 ) ;
#67 = DESIGN_CONTEXT ( 'detailed design', #135, 'design' ) ;
#68 = DIRECTION ( 'NONE',  ( 4.292138011278225812E-31, 1.000000000000000000, 1.229317185094960748E-16 ) ) ;
#69 = CARTESIAN_POINT ( 'NONE',  ( 5.237222008264698455E-15, -2.168404344971008868E-16, 1.499999999999999556 ) ) ;
#70 = CARTESIAN_POINT ( 'NONE',  ( 5.843511380112902479E-15, -2.057444466608821020E-16, 1.673648177666929859 ) ) ;
#71 = ORIENTED_EDGE ( 'NONE', *, *, #228, .T. ) ;
#72 = DIRECTION ( 'NONE',  ( -3.491481338843133355E-15, 1.229317185094960748E-16, -1.000000000000000000 ) ) ;
#73 = ORIENTED_EDGE ( 'NONE', *, *, #203, .T. ) ;
#74 = AXIS2_PLACEMENT_3D ( 'NONE', #115, #180, #94 ) ;
#75 = CARTESIAN_POINT ( 'NONE',  ( 1.316288464743861212E-13, -4.616918432785527392E-15, 37.69999999999999574 ) ) ;
#76 = VERTEX_POINT ( 'NONE', #163 ) ;
#77 = COORDINATED_UNIVERSAL_TIME_OFFSET ( 1, 0, .AHEAD. ) ;
#78 = AXIS2_PLACEMENT_3D ( 'NONE', #143, #212, #208 ) ;
#79 = EDGE_CURVE ( 'NONE', #12, #12, #107, .T. ) ;
#80 = APPROVAL_STATUS ( 'not_yet_approved' ) ;
#81 = PERSON_AND_ORGANIZATION ( #117, #7 ) ;
#82 = PERSON_AND_ORGANIZATION_ROLE ( 'creator' ) ;
#83 = VERTEX_POINT ( 'NONE', #227 ) ;
#84 = ORIENTED_EDGE ( 'NONE', *, *, #228, .F. ) ;
#85 = FACE_OUTER_BOUND ( 'NONE', #146, .T. ) ;
#86 = ADVANCED_FACE ( 'NONE', ( #48, #122 ), #194, .T. ) ;
#87 = FACE_OUTER_BOUND ( 'NONE', #196, .T. ) ;
#88 = FACE_OUTER_BOUND ( 'NONE', #220, .T. ) ;
#89 = EDGE_LOOP ( 'NONE', ( #73 ) ) ;
#90 = DIRECTION ( 'NONE',  ( -3.491481338843133355E-15, 1.224646799147354686E-16, -1.000000000000000000 ) ) ;
#91 = MANIFOLD_SOLID_BREP ( 'Corps-Déplacer/Copier1[2]', #156 ) ;
#92 = CARTESIAN_POINT ( 'NONE',  ( 5.237222008264698455E-15, -2.168404344971008128E-16, 1.499999999999999556 ) ) ;
#93 = DIRECTION ( 'NONE',  ( 1.000000000000000000, 0.0000000000000000000, 0.0000000000000000000 ) ) ;
#94 = DIRECTION ( 'NONE',  ( 0.0000000000000000000, 1.000000000000000000, 0.0000000000000000000 ) ) ;
#95 = CIRCLE ( 'NONE', #74, 1.500000000000000000 ) ;
#96 = VERTEX_POINT ( 'NONE', #202 ) ;
#97 = APPROVAL_PERSON_ORGANIZATION ( #170, #109, #119 ) ;
#98 = APPROVAL_STATUS ( 'not_yet_approved' ) ;
#99 = ADVANCED_FACE ( 'NONE', ( #85 ), #191, .F. ) ;
#100 = CONICAL_SURFACE ( 'NONE', #205, 1.500000000000000000, 0.7853981633974569387 ) ;
#101 = CC_DESIGN_APPROVAL ( #63, ( #15 ) ) ;
#102 = CC_DESIGN_DATE_AND_TIME_ASSIGNMENT ( #223, #37, ( #39 ) ) ;
#103 = CALENDAR_DATE ( 2021, 9, 12 ) ;
#104 = AXIS2_PLACEMENT_3D ( 'NONE', #189, #155, #176 ) ;
#105 = ADVANCED_FACE ( 'NONE', ( #49 ), #231, .F. ) ;
#106 = CARTESIAN_POINT ( 'NONE',  ( 5.237222008264698455E-15, -2.168404344971008128E-16, 1.499999999999999556 ) ) ;
#107 = CIRCLE ( 'NONE', #78, 0.2499999999999999445 ) ;
#108 = DIRECTION ( 'NONE',  ( -3.491481338843133355E-15, 1.229317185094960748E-16, -1.000000000000000000 ) ) ;
#109 = APPROVAL ( #80, 'UNSPECIFIED' ) ;
#110 = DIRECTION ( 'NONE',  ( -3.491481338843133355E-15, 1.229317185094960748E-16, -1.000000000000000000 ) ) ;
#111 = FACE_OUTER_BOUND ( 'NONE', #89, .T. ) ;
#112 = AXIS2_PLACEMENT_3D ( 'NONE', #219, #201, #93 ) ;
#113 = FACE_OUTER_BOUND ( 'NONE', #31, .T. ) ;
#114 = PERSON_AND_ORGANIZATION ( #117, #7 ) ;
#115 = CARTESIAN_POINT ( 'NONE',  ( 1.316288464743861212E-13, -4.616918432785527392E-15, 37.69999999999999574 ) ) ;
#116 = ORIENTED_EDGE ( 'NONE', *, *, #131, .T. ) ;
#117 = PERSON ( 'UNSPECIFIED', 'UNSPECIFIED', 'UNSPECIFIED', ('UNSPECIFIED'), ('UNSPECIFIED'), ('UNSPECIFIED') ) ;
#118 = CALENDAR_DATE ( 2021, 9, 12 ) ;
#119 = APPROVAL_ROLE ( '' ) ;
#120 = DATE_AND_TIME ( #225, #183 ) ;
#121 = CIRCLE ( 'NONE', #154, 0.2500000000000000000 ) ;
#122 = FACE_OUTER_BOUND ( 'NONE', #126, .T. ) ;
#123 = FACE_OUTER_BOUND ( 'NONE', #211, .T. ) ;
#124 = ORIENTED_EDGE ( 'NONE', *, *, #131, .F. ) ;
#125 = CARTESIAN_POINT ( 'NONE',  ( -3.206873584422722458E-31, 1.124819836996396080E-32, -9.184850993605159531E-17 ) ) ;
#126 = EDGE_LOOP ( 'NONE', ( #216 ) ) ;
#127 = DIRECTION ( 'NONE',  ( 0.0000000000000000000, -1.000000000000000000, 0.0000000000000000000 ) ) ;
#128 = EDGE_LOOP ( 'NONE', ( #199 ) ) ;
#129 = APPLICATION_PROTOCOL_DEFINITION ( 'international standard', 'config_control_design', 1994, #135 ) ;
#130 = CARTESIAN_POINT ( 'NONE',  ( 3.029415534497019215E-14, -1.066628234818166833E-15, 8.676590938048047263 ) ) ;
#131 = EDGE_CURVE ( 'NONE', #96, #96, #236, .T. ) ;
#132 = APPROVAL_DATE_TIME ( #179, #237 ) ;
#133 = CARTESIAN_POINT ( 'NONE',  ( 1.326762908760390170E-13, -4.653657836759946674E-15, 37.99999999999999289 ) ) ;
#134 = CARTESIAN_POINT ( 'NONE',  ( 5.843511380112902479E-15, 0.2651922469877913691, 1.673648177666929859 ) ) ;
#135 = APPLICATION_CONTEXT ( 'configuration controlled 3d designs of mechanical parts and assemblies' ) ;
#136 = COORDINATED_UNIVERSAL_TIME_OFFSET ( 1, 0, .AHEAD. ) ;
#137 = AXIS2_PLACEMENT_3D ( 'NONE', #192, #110, #68 ) ;
#138 = PRODUCT_DEFINITION_FORMATION_WITH_SPECIFIED_SOURCE ( 'ANY', '', #169, .NOT_KNOWN. ) ;
#139 = APPROVAL_ROLE ( '' ) ;
#140 = SECURITY_CLASSIFICATION_LEVEL ( 'unclassified' ) ;
#141 = CARTESIAN_POINT ( 'NONE',  ( 3.029415534497019215E-14, -1.500000000000001110, 8.676590938048047263 ) ) ;
#142 = DIRECTION ( 'NONE',  ( 4.275831445896963861E-31, 1.000000000000000000, 1.224646799147354686E-16 ) ) ;
#143 = CARTESIAN_POINT ( 'NONE',  ( 5.237222008264698455E-15, -1.843975777642440629E-16, 1.499999999999999556 ) ) ;
#144 = ADVANCED_FACE ( 'NONE', ( #123, #234 ), #161, .F. ) ;
#145 = DIRECTION ( 'NONE',  ( -4.275831445896963861E-31, -1.000000000000000000, -1.224646799147354686E-16 ) ) ;
#146 = EDGE_LOOP ( 'NONE', ( #229 ) ) ;
#147 = VERTEX_POINT ( 'NONE', #134 ) ;
#148 = APPLICATION_PROTOCOL_DEFINITION ( 'international standard', 'config_control_design', 1994, #241 ) ;
#149 = COORDINATED_UNIVERSAL_TIME_OFFSET ( 1, 0, .AHEAD. ) ;
#150 = PERSON_AND_ORGANIZATION_ROLE ( 'design_supplier' ) ;
#151 = ADVANCED_BREP_SHAPE_REPRESENTATION ( '378215', ( #1, #91, #112 ), #217 ) ;
#152 = CC_DESIGN_PERSON_AND_ORGANIZATION_ASSIGNMENT ( #242, #204, ( #39 ) ) ;
#153 = PERSON_AND_ORGANIZATION_ROLE ( 'classification_officer' ) ;
#154 = AXIS2_PLACEMENT_3D ( 'NONE', #232, #4, #25 ) ;
#155 = DIRECTION ( 'NONE',  ( -3.491481338843133355E-15, 1.224646799147354686E-16, -1.000000000000000000 ) ) ;
#156 = CLOSED_SHELL ( 'NONE', ( #2, #164, #185 ) ) ;
#157 = UNCERTAINTY_MEASURE_WITH_UNIT (LENGTH_MEASURE( 1.000000000000000082E-05 ), #36, 'distance_accuracy_value', 'NONE');
#158 = EDGE_LOOP ( 'NONE', ( #8 ) ) ;
#159 = DIRECTION ( 'NONE',  ( 0.0000000000000000000, 1.000000000000000000, 0.0000000000000000000 ) ) ;
#160 = DIRECTION ( 'NONE',  ( 3.491481338843133355E-15, -1.229317185094960748E-16, 1.000000000000000000 ) ) ;
#161 = TOROIDAL_SURFACE ( 'NONE', #45, 1.250000000000000000, 1.000000000000000222 ) ;
#162 = EDGE_LOOP ( 'NONE', ( #22 ) ) ;
#163 = CARTESIAN_POINT ( 'NONE',  ( 1.316288464743861212E-13, 1.499999999999995559, 37.69999999999999574 ) ) ;
#164 = ADVANCED_FACE ( 'NONE', ( #177, #87 ), #6, .T. ) ;
#165 = CARTESIAN_POINT ( 'NONE',  ( 5.237222008264698455E-15, 0.2499999999999997780, 1.499999999999999556 ) ) ;
#166 = FACE_BOUND ( 'NONE', #24, .T. ) ;
#167 = CC_DESIGN_PERSON_AND_ORGANIZATION_ASSIGNMENT ( #81, #82, ( #138 ) ) ;
#168 = CARTESIAN_POINT ( 'NONE',  ( -1.282749433769088983E-30, 0.2500000000000000000, -3.673940397442063812E-16 ) ) ;
#169 = PRODUCT ( '378215', '378215', '', ( #53 ) ) ;
#170 = PERSON_AND_ORGANIZATION ( #117, #7 ) ;
#171 = CC_DESIGN_APPROVAL ( #237, ( #39 ) ) ;
#172 = CALENDAR_DATE ( 2021, 9, 12 ) ;
#173 = PLANE ( 'NONE',  #61 ) ;
#174 = CIRCLE ( 'NONE', #221, 1.200000000000000178 ) ;
#175 = DIRECTION ( 'NONE',  ( -4.275831445896963861E-31, -1.000000000000000000, -1.224646799147354686E-16 ) ) ;
#176 = DIRECTION ( 'NONE',  ( 4.275831445896963861E-31, 1.000000000000000000, 1.224646799147354686E-16 ) ) ;
#177 = FACE_OUTER_BOUND ( 'NONE', #32, .T. ) ;
#178 = PLANE ( 'NONE',  #226 ) ;
#179 = DATE_AND_TIME ( #30, #200 ) ;
#180 = DIRECTION ( 'NONE',  ( -3.491481338843133355E-15, 1.224646799147354686E-16, -1.000000000000000000 ) ) ;
#181 = CIRCLE ( 'NONE', #18, 1.500000000000000000 ) ;
#182 = DIRECTION ( 'NONE',  ( 0.0000000000000000000, 1.000000000000000000, 0.0000000000000000000 ) ) ;
#183 = LOCAL_TIME ( 10, 53, 48.00000000000000000, #40 ) ;
#184 = PERSON_AND_ORGANIZATION ( #117, #7 ) ;
#185 = ADVANCED_FACE ( 'NONE', ( #111 ), #173, .T. ) ;
#186 = DATE_AND_TIME ( #118, #27 ) ;
#187 = AXIS2_PLACEMENT_3D ( 'NONE', #21, #230, #214 ) ;
#188 = LOCAL_TIME ( 10, 53, 48.00000000000000000, #149 ) ;
#189 = CARTESIAN_POINT ( 'NONE',  ( 1.326762908760390170E-13, 2.197316402903955485E-13, 37.99999999999999289 ) ) ;
#190 = ADVANCED_FACE ( 'NONE', ( #88, #23 ), #41, .T. ) ;
#191 = PLANE ( 'NONE',  #104 ) ;
#192 = CARTESIAN_POINT ( 'NONE',  ( 0.0000000000000000000, 0.0000000000000000000, 0.0000000000000000000 ) ) ;
#193 = CARTESIAN_POINT ( 'NONE',  ( 9.959826658677446548E-14, -3.506759705648594203E-15, 28.52607730670997199 ) ) ;
#194 = CYLINDRICAL_SURFACE ( 'NONE', #207, 1.500000000000000000 ) ;
#195 = CIRCLE ( 'NONE', #35, 0.2651922469877915911 ) ;
#196 = EDGE_LOOP ( 'NONE', ( #116 ) ) ;
#197 = DIRECTION ( 'NONE',  ( -3.491481338843133355E-15, 1.229317185094960748E-16, -1.000000000000000000 ) ) ;
#198 = APPROVAL_ROLE ( '' ) ;
#199 = ORIENTED_EDGE ( 'NONE', *, *, #29, .F. ) ;
#200 = LOCAL_TIME ( 10, 53, 48.00000000000000000, #77 ) ;
#201 = DIRECTION ( 'NONE',  ( 0.0000000000000000000, 0.0000000000000000000, 1.000000000000000000 ) ) ;
#202 = CARTESIAN_POINT ( 'NONE',  ( 5.237222008264698455E-15, 0.2499999999999997780, 1.499999999999999556 ) ) ;
#203 = EDGE_CURVE ( 'NONE', #57, #57, #121, .T. ) ;
#204 = PERSON_AND_ORGANIZATION_ROLE ( 'creator' ) ;
#205 = AXIS2_PLACEMENT_3D ( 'NONE', #75, #44, #159 ) ;
#206 = PERSON_AND_ORGANIZATION ( #117, #7 ) ;
#207 = AXIS2_PLACEMENT_3D ( 'NONE', #47, #26, #210 ) ;
#208 = DIRECTION ( 'NONE',  ( 0.0000000000000000000, 1.000000000000000000, 0.0000000000000000000 ) ) ;
#209 = CC_DESIGN_PERSON_AND_ORGANIZATION_ASSIGNMENT ( #9, #239, ( #169 ) ) ;
#210 = DIRECTION ( 'NONE',  ( 4.275831445896963861E-31, 1.000000000000000000, 1.224646799147354686E-16 ) ) ;
#211 = EDGE_LOOP ( 'NONE', ( #28 ) ) ;
#212 = DIRECTION ( 'NONE',  ( -3.491481338843133355E-15, 1.229317185094960748E-16, -1.000000000000000000 ) ) ;
#213 = CC_DESIGN_PERSON_AND_ORGANIZATION_ASSIGNMENT ( #206, #150, ( #138 ) ) ;
#214 = DIRECTION ( 'NONE',  ( 0.0000000000000000000, 1.000000000000000000, 0.0000000000000000000 ) ) ;
#215 = DIRECTION ( 'NONE',  ( 0.0000000000000000000, 1.000000000000000000, 0.0000000000000000000 ) ) ;
#216 = ORIENTED_EDGE ( 'NONE', *, *, #50, .T. ) ;
#217 =( GEOMETRIC_REPRESENTATION_CONTEXT ( 3 ) GLOBAL_UNCERTAINTY_ASSIGNED_CONTEXT ( ( #157 ) ) GLOBAL_UNIT_ASSIGNED_CONTEXT ( ( #36, #222, #240 ) ) REPRESENTATION_CONTEXT ( 'NONE', 'WORKASPACE' ) );
#218 = ORIENTED_EDGE ( 'NONE', *, *, #29, .T. ) ;
#219 = CARTESIAN_POINT ( 'NONE',  ( 0.0000000000000000000, 0.0000000000000000000, 0.0000000000000000000 ) ) ;
#220 = EDGE_LOOP ( 'NONE', ( #218 ) ) ;
#221 = AXIS2_PLACEMENT_3D ( 'NONE', #133, #52, #182 ) ;
#222 =( NAMED_UNIT ( * ) PLANE_ANGLE_UNIT ( ) SI_UNIT ( $, .RADIAN. ) );
#223 = DATE_AND_TIME ( #103, #188 ) ;
#224 = PERSON_AND_ORGANIZATION ( #117, #7 ) ;
#225 = CALENDAR_DATE ( 2021, 9, 12 ) ;
#226 = AXIS2_PLACEMENT_3D ( 'NONE', #92, #13, #145 ) ;
#227 = CARTESIAN_POINT ( 'NONE',  ( 1.326762908760390170E-13, 1.199999999999995515, 37.99999999999999289 ) ) ;
#228 = EDGE_CURVE ( 'NONE', #147, #147, #195, .T. ) ;
#229 = ORIENTED_EDGE ( 'NONE', *, *, #10, .F. ) ;
#230 = DIRECTION ( 'NONE',  ( -3.491481338843133355E-15, 1.229317185094960748E-16, -1.000000000000000000 ) ) ;
#231 = PLANE ( 'NONE',  #243 ) ;
#232 = CARTESIAN_POINT ( 'NONE',  ( -1.390052884051044716E-30, 4.894243252982589047E-32, -3.981269693715804123E-16 ) ) ;
#233 = ORIENTED_EDGE ( 'NONE', *, *, #10, .T. ) ;
#234 = FACE_OUTER_BOUND ( 'NONE', #11, .T. ) ;
#235 = EDGE_LOOP ( 'NONE', ( #84 ) ) ;
#236 = CIRCLE ( 'NONE', #187, 0.2499999999999999445 ) ;
#237 = APPROVAL ( #98, 'UNSPECIFIED' ) ;
#238 = FACE_OUTER_BOUND ( 'NONE', #162, .T. ) ;
#239 = PERSON_AND_ORGANIZATION_ROLE ( 'design_owner' ) ;
#240 =( NAMED_UNIT ( * ) SI_UNIT ( $, .STERADIAN. ) SOLID_ANGLE_UNIT ( ) );
#241 = APPLICATION_CONTEXT ( 'configuration controlled 3d designs of mechanical parts and assemblies' ) ;
#242 = PERSON_AND_ORGANIZATION ( #117, #7 ) ;
#243 = AXIS2_PLACEMENT_3D ( 'NONE', #106, #19, #175 ) ;
ENDSEC;
END-ISO-10303-21;
