ISO-10303-21;
HEADER;
FILE_DESCRIPTION (( 'STEP AP203' ),
    '1' );
FILE_NAME ('378088.step',
    '2021-12-17T07:11:14',
    ( '' ),
    ( '' ),
    'SwSTEP 2.0',
    'SolidWorks 2019',
    '' );
FILE_SCHEMA (( 'CONFIG_CONTROL_DESIGN' ));
ENDSEC;

DATA;
#1 = EDGE_LOOP ( 'NONE', ( #88 ) ) ;
#2 = DATE_TIME_ROLE ( 'creation_date' ) ;
#3 = EDGE_LOOP ( 'NONE', ( #316 ) ) ;
#4 = SECURITY_CLASSIFICATION_LEVEL ( 'unclassified' ) ;
#5 = PERSON_AND_ORGANIZATION_ROLE ( 'design_owner' ) ;
#6 = EDGE_LOOP ( 'NONE', ( #284 ) ) ;
#7 = CIRCLE ( 'NONE', #272, 1.499999999999995337 ) ;
#8 = PERSON_AND_ORGANIZATION ( #28, #216 ) ;
#9 = APPROVAL_DATE_TIME ( #260, #321 ) ;
#10 = DIRECTION ( 'NONE',  ( -1.000000000000000000, 0.0000000000000000000, 3.491481338843133355E-15 ) ) ;
#11 = PERSON_AND_ORGANIZATION ( #28, #216 ) ;
#12 = DIRECTION ( 'NONE',  ( 3.491481338843133355E-15, 0.0000000000000000000, 1.000000000000000000 ) ) ;
#13 = CARTESIAN_POINT ( 'NONE',  ( 1.909284944769698007E-15, 0.0000000000000000000, 0.5468409421321208663 ) ) ;
#14 = CLOSED_SHELL ( 'NONE', ( #363, #85, #43, #67, #250, #348, #151 ) ) ;
#15 = DIRECTION ( 'NONE',  ( 3.491481338843133355E-15, 0.0000000000000000000, 1.000000000000000000 ) ) ;
#16 = DIRECTION ( 'NONE',  ( -3.491481338843133355E-15, 0.0000000000000000000, -1.000000000000000000 ) ) ;
#17 = CARTESIAN_POINT ( 'NONE',  ( -0.8890741737108993625, 0.0000000000000000000, 8.658819045102518430 ) ) ;
#18 = DIRECTION ( 'NONE',  ( -1.000000000000000000, 0.0000000000000000000, 3.491481338843133355E-15 ) ) ;
#19 = FACE_OUTER_BOUND ( 'NONE', #63, .T. ) ;
#20 = AXIS2_PLACEMENT_3D ( 'NONE', #165, #189, #302 ) ;
#21 = TOROIDAL_SURFACE ( 'NONE', #259, 1.354999999999999760, 0.5000000000000002220 ) ;
#22 = CC_DESIGN_PERSON_AND_ORGANIZATION_ASSIGNMENT ( #338, #195, ( #105 ) ) ;
#23 = CARTESIAN_POINT ( 'NONE',  ( 0.0000000000000000000, 0.0000000000000000000, 0.0000000000000000000 ) ) ;
#24 =( NAMED_UNIT ( * ) SI_UNIT ( $, .STERADIAN. ) SOLID_ANGLE_UNIT ( ) );
#25 = DIRECTION ( 'NONE',  ( -1.000000000000000000, 0.0000000000000000000, 3.550603605800486241E-15 ) ) ;
#26 = DIRECTION ( 'NONE',  ( -1.000000000000000000, 0.0000000000000000000, 3.491481338843133355E-15 ) ) ;
#27 = COORDINATED_UNIVERSAL_TIME_OFFSET ( 1, 0, .AHEAD. ) ;
#28 = PERSON ( 'UNSPECIFIED', 'UNSPECIFIED', 'UNSPECIFIED', ('UNSPECIFIED'), ('UNSPECIFIED'), ('UNSPECIFIED') ) ;
#29 = EDGE_CURVE ( 'NONE', #162, #162, #258, .T. ) ;
#30 = EDGE_LOOP ( 'NONE', ( #86 ) ) ;
#31 = TOROIDAL_SURFACE ( 'NONE', #229, 1.854999999999999982, 1.000000000000000000 ) ;
#32 = DATE_AND_TIME ( #191, #150 ) ;
#33 = DESIGN_CONTEXT ( 'detailed design', #349, 'design' ) ;
#34 = CC_DESIGN_PERSON_AND_ORGANIZATION_ASSIGNMENT ( #11, #257, ( #337 ) ) ;
#35 = APPROVAL_DATE_TIME ( #164, #81 ) ;
#36 = PERSON_AND_ORGANIZATION ( #28, #216 ) ;
#37 = ADVANCED_FACE ( 'NONE', ( #299 ), #161, .F. ) ;
#38 = PERSON_AND_ORGANIZATION ( #28, #216 ) ;
#39 = APPROVAL_PERSON_ORGANIZATION ( #38, #321, #152 ) ;
#40 = FACE_OUTER_BOUND ( 'NONE', #315, .T. ) ;
#41 = FACE_OUTER_BOUND ( 'NONE', #3, .T. ) ;
#42 = CARTESIAN_POINT ( 'NONE',  ( 8.813213642691434868E-16, 0.0000000000000000000, 0.2524204710660605810 ) ) ;
#43 = ADVANCED_FACE ( 'NONE', ( #263, #187 ), #310, .T. ) ;
#44 = EDGE_LOOP ( 'NONE', ( #345 ) ) ;
#45 = CIRCLE ( 'NONE', #277, 0.9359999999999998321 ) ;
#46 = CARTESIAN_POINT ( 'NONE',  ( 1.316288464743861212E-13, 0.0000000000000000000, 37.69999999999999574 ) ) ;
#47 = EDGE_LOOP ( 'NONE', ( #241 ) ) ;
#48 = CARTESIAN_POINT ( 'NONE',  ( -1.199999999999999067, 0.0000000000000000000, 0.2524204710660647444 ) ) ;
#49 = FACE_BOUND ( 'NONE', #183, .T. ) ;
#50 = CARTESIAN_POINT ( 'NONE',  ( -1.499999999999863665, 0.0000000000000000000, 37.70000000000000284 ) ) ;
#51 = AXIS2_PLACEMENT_3D ( 'NONE', #42, #15, #159 ) ;
#52 = CC_DESIGN_SECURITY_CLASSIFICATION ( #337, ( #105 ) ) ;
#53 = PRODUCT_DEFINITION_SHAPE ( 'NONE', 'NONE',  #87 ) ;
#54 = CYLINDRICAL_SURFACE ( 'NONE', #62, 0.9359999999999999432 ) ;
#55 = PERSON_AND_ORGANIZATION ( #28, #216 ) ;
#56 = CARTESIAN_POINT ( 'NONE',  ( 2.861883657520078881E-15, 0.0000000000000000000, 0.8196760571741548151 ) ) ;
#57 = CONICAL_SURFACE ( 'NONE', #333, 0.9359999999999998321, 1.047197551196600296 ) ;
#58 = DIRECTION ( 'NONE',  ( -3.491481338843133355E-15, 0.0000000000000000000, -1.000000000000000000 ) ) ;
#59 = ORIENTED_EDGE ( 'NONE', *, *, #79, .F. ) ;
#60 = EDGE_LOOP ( 'NONE', ( #226 ) ) ;
#61 = CIRCLE ( 'NONE', #74, 0.9359999999999997211 ) ;
#62 = AXIS2_PLACEMENT_3D ( 'NONE', #279, #339, #223 ) ;
#63 = EDGE_LOOP ( 'NONE', ( #146 ) ) ;
#64 = ORIENTED_EDGE ( 'NONE', *, *, #136, .F. ) ;
#65 = CC_DESIGN_APPROVAL ( #122, ( #105 ) ) ;
#66 = CYLINDRICAL_SURFACE ( 'NONE', #264, 0.9359999999999997211 ) ;
#67 = ADVANCED_FACE ( 'NONE', ( #123, #154 ), #304, .T. ) ;
#68 = DIRECTION ( 'NONE',  ( -1.000000000000000000, 0.0000000000000000000, 4.625929269271500311E-15 ) ) ;
#69 = PLANE ( 'NONE',  #282 ) ;
#70 = DATE_AND_TIME ( #202, #231 ) ;
#71 = DIRECTION ( 'NONE',  ( -3.491481338843133355E-15, 0.0000000000000000000, -1.000000000000000000 ) ) ;
#72 = EDGE_LOOP ( 'NONE', ( #281 ) ) ;
#73 = CARTESIAN_POINT ( 'NONE',  ( -0.9359999999999980558, 0.0000000000000000000, 0.5468409421321240860 ) ) ;
#74 = AXIS2_PLACEMENT_3D ( 'NONE', #110, #193, #186 ) ;
#75 = CIRCLE ( 'NONE', #300, 1.499999999999995337 ) ;
#76 = DIRECTION ( 'NONE',  ( -3.491481338843133355E-15, 0.0000000000000000000, -1.000000000000000000 ) ) ;
#77 = CARTESIAN_POINT ( 'NONE',  ( -0.9359999999999998321, 0.0000000000000000000, 3.369670486827688262E-15 ) ) ;
#78 = DIRECTION ( 'NONE',  ( -1.000000000000000000, 0.0000000000000000000, 3.475006963094565837E-15 ) ) ;
#79 = EDGE_CURVE ( 'NONE', #313, #313, #288, .T. ) ;
#80 = VERTEX_POINT ( 'NONE', #17 ) ;
#81 = APPROVAL ( #222, 'UNSPECIFIED' ) ;
#82 = AXIS2_PLACEMENT_3D ( 'NONE', #13, #76, #78 ) ;
#83 = ADVANCED_FACE ( 'NONE', ( #127, #246 ), #247, .T. ) ;
#84 = CARTESIAN_POINT ( 'NONE',  ( 1.774439837234213785E-31, 0.0000000000000000000, 5.082197683525802034E-17 ) ) ;
#85 = ADVANCED_FACE ( 'NONE', ( #352, #120 ), #66, .T. ) ;
#86 = ORIENTED_EDGE ( 'NONE', *, *, #318, .T. ) ;
#87 = PRODUCT_DEFINITION ( 'UNKNOWN', '', #105, #33 ) ;
#88 = ORIENTED_EDGE ( 'NONE', *, *, #29, .T. ) ;
#89 = CALENDAR_DATE ( 2021, 17, 12 ) ;
#90 = AXIS2_PLACEMENT_3D ( 'NONE', #203, #251, #228 ) ;
#91 = CLOSED_SHELL ( 'NONE', ( #37, #261, #211, #119, #238, #168, #83, #95 ) ) ;
#92 = ORIENTED_EDGE ( 'NONE', *, *, #305, .T. ) ;
#93 = CARTESIAN_POINT ( 'NONE',  ( 3.819270429372652524E-14, 0.0000000000000000000, 10.93882526846936720 ) ) ;
#94 = DIRECTION ( 'NONE',  ( 1.000000000000000000, 0.0000000000000000000, -3.491481338843133355E-15 ) ) ;
#95 = ADVANCED_FACE ( 'NONE', ( #133 ), #327, .F. ) ;
#96 = CYLINDRICAL_SURFACE ( 'NONE', #199, 0.8549999999999994271 ) ;
#97 = CARTESIAN_POINT ( 'NONE',  ( 3.023210511239495232E-14, 0.0000000000000000000, 8.658819045102514877 ) ) ;
#98 = CARTESIAN_POINT ( 'NONE',  ( 1.909284944769698007E-15, -6.334253605381038822E-17, 0.5468409421321208663 ) ) ;
#99 = CARTESIAN_POINT ( 'NONE',  ( 3.819270429372652524E-14, 0.0000000000000000000, 10.93882526846936720 ) ) ;
#100 = DIRECTION ( 'NONE',  ( -3.491481338843133355E-15, 0.0000000000000000000, -1.000000000000000000 ) ) ;
#101 = CARTESIAN_POINT ( 'NONE',  ( -0.9359999999999983888, 0.0000000000000000000, 0.4468409421321240527 ) ) ;
#102 = APPROVAL_PERSON_ORGANIZATION ( #8, #81, #205 ) ;
#103 = CARTESIAN_POINT ( 'NONE',  ( 8.813213642691434868E-16, 0.0000000000000000000, 0.2524204710660605810 ) ) ;
#104 = PRODUCT ( '378088', '378088', '', ( #166 ) ) ;
#105 = PRODUCT_DEFINITION_FORMATION_WITH_SPECIFIED_SOURCE ( 'ANY', '', #104, .NOT_KNOWN. ) ;
#106 = VERTEX_POINT ( 'NONE', #77 ) ;
#107 = PERSON_AND_ORGANIZATION_ROLE ( 'creator' ) ;
#108 = CARTESIAN_POINT ( 'NONE',  ( 1.027963580500554914E-15, 0.0000000000000000000, 0.2944204710660605073 ) ) ;
#109 = PERSON_AND_ORGANIZATION ( #28, #216 ) ;
#110 = CARTESIAN_POINT ( 'NONE',  ( 3.491481338843138779E-16, 0.0000000000000000000, 0.1000000000000001582 ) ) ;
#111 = ORIENTED_EDGE ( 'NONE', *, *, #29, .F. ) ;
#112 = CC_DESIGN_APPROVAL ( #81, ( #87 ) ) ;
#113 = APPLICATION_PROTOCOL_DEFINITION ( 'international standard', 'config_control_design', 1994, #283 ) ;
#114 = EDGE_LOOP ( 'NONE', ( #322 ) ) ;
#115 = DIRECTION ( 'NONE',  ( -1.000000000000000000, 0.0000000000000000000, 3.491481338843133355E-15 ) ) ;
#116 = ORIENTED_EDGE ( 'NONE', *, *, #342, .F. ) ;
#117 = MANIFOLD_SOLID_BREP ( 'Corps-Déplacer/Copier1[2]', #14 ) ;
#118 = ORIENTED_EDGE ( 'NONE', *, *, #79, .T. ) ;
#119 = ADVANCED_FACE ( 'NONE', ( #355, #212 ), #31, .F. ) ;
#120 = FACE_OUTER_BOUND ( 'NONE', #44, .T. ) ;
#121 = DATE_TIME_ROLE ( 'classification_date' ) ;
#122 = APPROVAL ( #142, 'UNSPECIFIED' ) ;
#123 = FACE_OUTER_BOUND ( 'NONE', #256, .T. ) ;
#124 = AXIS2_PLACEMENT_3D ( 'NONE', #286, #169, #147 ) ;
#125 = MANIFOLD_SOLID_BREP ( 'Corps-Déplacer/Copier1[1]', #91 ) ;
#126 = FACE_OUTER_BOUND ( 'NONE', #347, .T. ) ;
#127 = FACE_OUTER_BOUND ( 'NONE', #252, .T. ) ;
#128 = CARTESIAN_POINT ( 'NONE',  ( 1.326762908760390423E-13, 0.0000000000000000000, 38.00000000000000000 ) ) ;
#129 = CARTESIAN_POINT ( 'NONE',  ( 3.548879674468427571E-31, 0.0000000000000000000, 1.016439536705160407E-16 ) ) ;
#130 = DIRECTION ( 'NONE',  ( -1.000000000000000000, 0.0000000000000000000, 5.782411586589379332E-15 ) ) ;
#131 = DIRECTION ( 'NONE',  ( -1.000000000000000000, 0.0000000000000000000, 5.782411586589379332E-15 ) ) ;
#132 = DIRECTION ( 'NONE',  ( -3.491481338843133355E-15, 0.0000000000000000000, -1.000000000000000000 ) ) ;
#133 = FACE_OUTER_BOUND ( 'NONE', #230, .T. ) ;
#134 = CARTESIAN_POINT ( 'NONE',  ( -0.9359999999999980558, 0.0000000000000000000, 0.5468409421321240860 ) ) ;
#135 = AXIS2_PLACEMENT_3D ( 'NONE', #334, #185, #25 ) ;
#136 = EDGE_CURVE ( 'NONE', #160, #160, #237, .T. ) ;
#137 = AXIS2_PLACEMENT_3D ( 'NONE', #23, #227, #115 ) ;
#138 = AXIS2_PLACEMENT_3D ( 'NONE', #267, #359, #236 ) ;
#139 = EDGE_LOOP ( 'NONE', ( #92 ) ) ;
#140 = COORDINATED_UNIVERSAL_TIME_OFFSET ( 1, 0, .AHEAD. ) ;
#141 = ORIENTED_EDGE ( 'NONE', *, *, #249, .T. ) ;
#142 = APPROVAL_STATUS ( 'not_yet_approved' ) ;
#143 = EDGE_CURVE ( 'NONE', #80, #80, #170, .T. ) ;
#144 = ORIENTED_EDGE ( 'NONE', *, *, #249, .F. ) ;
#145 = DATE_AND_TIME ( #346, #343 ) ;
#146 = ORIENTED_EDGE ( 'NONE', *, *, #291, .T. ) ;
#147 = DIRECTION ( 'NONE',  ( -1.000000000000000000, 0.0000000000000000000, 3.475006963094566232E-15 ) ) ;
#148 = CARTESIAN_POINT ( 'NONE',  ( -1.199999999999998845, 0.0000000000000000000, 0.2944204710660646707 ) ) ;
#149 = AXIS2_PLACEMENT_3D ( 'NONE', #208, #100, #10 ) ;
#150 = LOCAL_TIME ( 8, 11, 14.00000000000000000, #140 ) ;
#151 = ADVANCED_FACE ( 'NONE', ( #40 ), #69, .T. ) ;
#152 = APPROVAL_ROLE ( '' ) ;
#153 = DIRECTION ( 'NONE',  ( 3.491481338843133355E-15, 0.0000000000000000000, 1.000000000000000000 ) ) ;
#154 = FACE_OUTER_BOUND ( 'NONE', #114, .T. ) ;
#155 = DIRECTION ( 'NONE',  ( 3.491481338843133355E-15, 0.0000000000000000000, 1.000000000000000000 ) ) ;
#156 = CIRCLE ( 'NONE', #124, 0.9359999999999998321 ) ;
#157 = CC_DESIGN_APPROVAL ( #321, ( #337 ) ) ;
#158 = DIRECTION ( 'NONE',  ( -1.000000000000000000, 0.0000000000000000000, 3.491481338843133750E-15 ) ) ;
#159 = DIRECTION ( 'NONE',  ( 1.000000000000000000, 0.0000000000000000000, -3.478481970057660322E-15 ) ) ;
#160 = VERTEX_POINT ( 'NONE', #266 ) ;
#161 = PLANE ( 'NONE',  #271 ) ;
#162 = VERTEX_POINT ( 'NONE', #73 ) ;
#163 = VERTEX_POINT ( 'NONE', #276 ) ;
#164 = DATE_AND_TIME ( #89, #290 ) ;
#165 = CARTESIAN_POINT ( 'NONE',  ( 1.909284944769698007E-15, 0.0000000000000000000, 0.5468409421321208663 ) ) ;
#166 = MECHANICAL_CONTEXT ( 'NONE', #283, 'mechanical' ) ;
#167 = ORIENTED_EDGE ( 'NONE', *, *, #197, .F. ) ;
#168 = ADVANCED_FACE ( 'NONE', ( #296, #341 ), #274, .T. ) ;
#169 = DIRECTION ( 'NONE',  ( -3.491481338843133355E-15, 0.0000000000000000000, -1.000000000000000000 ) ) ;
#170 = CIRCLE ( 'NONE', #317, 0.8890741737109296716 ) ;
#171 = EDGE_LOOP ( 'NONE', ( #167 ) ) ;
#172 = ORIENTED_EDGE ( 'NONE', *, *, #143, .F. ) ;
#173 = UNCERTAINTY_MEASURE_WITH_UNIT (LENGTH_MEASURE( 1.000000000000000082E-05 ), #306, 'distance_accuracy_value', 'NONE');
#174 = APPLICATION_PROTOCOL_DEFINITION ( 'international standard', 'config_control_design', 1994, #349 ) ;
#175 = ORIENTED_EDGE ( 'NONE', *, *, #136, .T. ) ;
#176 = ADVANCED_BREP_SHAPE_REPRESENTATION ( '378088', ( #125, #117, #90 ), #265 ) ;
#177 = CALENDAR_DATE ( 2021, 17, 12 ) ;
#178 = DIRECTION ( 'NONE',  ( -3.491481338843133355E-15, 0.0000000000000000000, -1.000000000000000000 ) ) ;
#179 = FACE_OUTER_BOUND ( 'NONE', #207, .T. ) ;
#180 = CARTESIAN_POINT ( 'NONE',  ( 1.909284944769698007E-15, -6.334253605381038822E-17, 0.5468409421321208663 ) ) ;
#181 = DIRECTION ( 'NONE',  ( -1.000000000000000000, 0.0000000000000000000, 3.475006963094566232E-15 ) ) ;
#182 = CC_DESIGN_PERSON_AND_ORGANIZATION_ASSIGNMENT ( #36, #5, ( #104 ) ) ;
#183 = EDGE_LOOP ( 'NONE', ( #172 ) ) ;
#184 = AXIS2_PLACEMENT_3D ( 'NONE', #108, #309, #268 ) ;
#185 = DIRECTION ( 'NONE',  ( -3.491481338843133355E-15, 0.0000000000000000000, -1.000000000000000000 ) ) ;
#186 = DIRECTION ( 'NONE',  ( -1.000000000000000000, 0.0000000000000000000, 3.489486158774127242E-15 ) ) ;
#187 = FACE_OUTER_BOUND ( 'NONE', #244, .T. ) ;
#188 = VERTEX_POINT ( 'NONE', #50 ) ;
#189 = DIRECTION ( 'NONE',  ( -3.491481338843133355E-15, 0.0000000000000000000, -1.000000000000000000 ) ) ;
#190 = VERTEX_POINT ( 'NONE', #148 ) ;
#191 = CALENDAR_DATE ( 2021, 17, 12 ) ;
#192 = AXIS2_PLACEMENT_3D ( 'NONE', #329, #214, #331 ) ;
#193 = DIRECTION ( 'NONE',  ( -3.491481338843133355E-15, 0.0000000000000000000, -1.000000000000000000 ) ) ;
#194 = DIRECTION ( 'NONE',  ( 3.491481338843133355E-15, 0.0000000000000000000, 1.000000000000000000 ) ) ;
#195 = PERSON_AND_ORGANIZATION_ROLE ( 'creator' ) ;
#196 = EDGE_LOOP ( 'NONE', ( #116 ) ) ;
#197 = EDGE_CURVE ( 'NONE', #245, #245, #156, .T. ) ;
#198 = ORIENTED_EDGE ( 'NONE', *, *, #323, .F. ) ;
#199 = AXIS2_PLACEMENT_3D ( 'NONE', #235, #240, #158 ) ;
#200 = EDGE_LOOP ( 'NONE', ( #351 ) ) ;
#201 = LOCAL_TIME ( 8, 11, 14.00000000000000000, #234 ) ;
#202 = CALENDAR_DATE ( 2021, 17, 12 ) ;
#203 = CARTESIAN_POINT ( 'NONE',  ( 0.0000000000000000000, 0.0000000000000000000, 0.0000000000000000000 ) ) ;
#204 = ORIENTED_EDGE ( 'NONE', *, *, #318, .F. ) ;
#205 = APPROVAL_ROLE ( '' ) ;
#206 = EDGE_CURVE ( 'NONE', #217, #217, #61, .T. ) ;
#207 = EDGE_LOOP ( 'NONE', ( #198 ) ) ;
#208 = CARTESIAN_POINT ( 'NONE',  ( 1.326762908760390423E-13, 0.0000000000000000000, 38.00000000000000000 ) ) ;
#209 = DIRECTION ( 'NONE',  ( -3.491481338843133355E-15, 0.0000000000000000000, -1.000000000000000000 ) ) ;
#210 = DIRECTION ( 'NONE',  ( -3.491481338843133355E-15, 0.0000000000000000000, -1.000000000000000000 ) ) ;
#211 = ADVANCED_FACE ( 'NONE', ( #292, #126 ), #96, .T. ) ;
#212 = FACE_OUTER_BOUND ( 'NONE', #60, .T. ) ;
#213 = PLANE ( 'NONE',  #361 ) ;
#214 = DIRECTION ( 'NONE',  ( -3.491481338843133355E-15, 0.0000000000000000000, -1.000000000000000000 ) ) ;
#215 = CONICAL_SURFACE ( 'NONE', #311, 1.499999999999995337, 0.2617993877991427465 ) ;
#216 = ORGANIZATION ( 'UNSPECIFIED', 'UNSPECIFIED', '' ) ;
#217 = VERTEX_POINT ( 'NONE', #336 ) ;
#218 = CARTESIAN_POINT ( 'NONE',  ( 1.326762908760390423E-13, 0.0000000000000000000, 38.00000000000000000 ) ) ;
#219 = DIRECTION ( 'NONE',  ( -3.491481338843133355E-15, 0.0000000000000000000, -1.000000000000000000 ) ) ;
#220 = CIRCLE ( 'NONE', #273, 1.199999999999995293 ) ;
#221 =( NAMED_UNIT ( * ) PLANE_ANGLE_UNIT ( ) SI_UNIT ( $, .RADIAN. ) );
#222 = APPROVAL_STATUS ( 'not_yet_approved' ) ;
#223 = DIRECTION ( 'NONE',  ( -1.000000000000000000, 0.0000000000000000000, 3.491481338843133355E-15 ) ) ;
#224 = EDGE_CURVE ( 'NONE', #106, #106, #45, .T. ) ;
#225 = EDGE_LOOP ( 'NONE', ( #64 ) ) ;
#226 = ORIENTED_EDGE ( 'NONE', *, *, #143, .T. ) ;
#227 = DIRECTION ( 'NONE',  ( -3.491481338843133355E-15, 0.0000000000000000000, -1.000000000000000000 ) ) ;
#228 = DIRECTION ( 'NONE',  ( 1.000000000000000000, 0.0000000000000000000, 0.0000000000000000000 ) ) ;
#229 = AXIS2_PLACEMENT_3D ( 'NONE', #357, #178, #18 ) ;
#230 = EDGE_LOOP ( 'NONE', ( #204 ) ) ;
#231 = LOCAL_TIME ( 8, 11, 14.00000000000000000, #239 ) ;
#232 = VERTEX_POINT ( 'NONE', #255 ) ;
#233 = DIRECTION ( 'NONE',  ( -3.491481338843133355E-15, 0.0000000000000000000, -1.000000000000000000 ) ) ;
#234 = COORDINATED_UNIVERSAL_TIME_OFFSET ( 1, 0, .AHEAD. ) ;
#235 = CARTESIAN_POINT ( 'NONE',  ( 0.0000000000000000000, 0.0000000000000000000, 0.0000000000000000000 ) ) ;
#236 = DIRECTION ( 'NONE',  ( -1.000000000000000000, 0.0000000000000000000, 3.491481338843132961E-15 ) ) ;
#237 = CIRCLE ( 'NONE', #192, 0.8549999999999998712 ) ;
#238 = ADVANCED_FACE ( 'NONE', ( #49, #41 ), #215, .T. ) ;
#239 = COORDINATED_UNIVERSAL_TIME_OFFSET ( 1, 0, .AHEAD. ) ;
#240 = DIRECTION ( 'NONE',  ( -3.491481338843133355E-15, 0.0000000000000000000, -1.000000000000000000 ) ) ;
#241 = ORIENTED_EDGE ( 'NONE', *, *, #206, .F. ) ;
#242 = CC_DESIGN_PERSON_AND_ORGANIZATION_ASSIGNMENT ( #314, #280, ( #105 ) ) ;
#243 = FACE_OUTER_BOUND ( 'NONE', #171, .T. ) ;
#244 = EDGE_LOOP ( 'NONE', ( #118 ) ) ;
#245 = VERTEX_POINT ( 'NONE', #101 ) ;
#246 = FACE_BOUND ( 'NONE', #30, .T. ) ;
#247 = CONICAL_SURFACE ( 'NONE', #332, 1.199999999999995293, 0.7853981633974453924 ) ;
#248 = CARTESIAN_POINT ( 'NONE',  ( -0.8549999999999963185, 0.0000000000000000000, 0.8196760571741595891 ) ) ;
#249 = EDGE_CURVE ( 'NONE', #188, #188, #7, .T. ) ;
#250 = ADVANCED_FACE ( 'NONE', ( #179, #295 ), #57, .T. ) ;
#251 = DIRECTION ( 'NONE',  ( 0.0000000000000000000, 0.0000000000000000000, 1.000000000000000000 ) ) ;
#252 = EDGE_LOOP ( 'NONE', ( #144 ) ) ;
#253 = APPROVAL_ROLE ( '' ) ;
#254 = EDGE_LOOP ( 'NONE', ( #111 ) ) ;
#255 = CARTESIAN_POINT ( 'NONE',  ( -1.499999999999957145, 0.0000000000000000000, 10.93882526846937253 ) ) ;
#256 = EDGE_LOOP ( 'NONE', ( #59 ) ) ;
#257 = PERSON_AND_ORGANIZATION_ROLE ( 'classification_officer' ) ;
#258 = CIRCLE ( 'NONE', #82, 0.9359999999999999432 ) ;
#259 = AXIS2_PLACEMENT_3D ( 'NONE', #56, #58, #26 ) ;
#260 = DATE_AND_TIME ( #177, #201 ) ;
#261 = ADVANCED_FACE ( 'NONE', ( #298, #308 ), #21, .F. ) ;
#262 = EDGE_LOOP ( 'NONE', ( #141 ) ) ;
#263 = FACE_BOUND ( 'NONE', #47, .T. ) ;
#264 = AXIS2_PLACEMENT_3D ( 'NONE', #269, #233, #324 ) ;
#265 =( GEOMETRIC_REPRESENTATION_CONTEXT ( 3 ) GLOBAL_UNCERTAINTY_ASSIGNED_CONTEXT ( ( #173 ) ) GLOBAL_UNIT_ASSIGNED_CONTEXT ( ( #306, #221, #24 ) ) REPRESENTATION_CONTEXT ( 'NONE', 'WORKASPACE' ) );
#266 = CARTESIAN_POINT ( 'NONE',  ( -0.8549999999999704503, 0.0000000000000000000, 8.400000000000003908 ) ) ;
#267 = CARTESIAN_POINT ( 'NONE',  ( 0.0000000000000000000, 0.0000000000000000000, 0.0000000000000000000 ) ) ;
#268 = DIRECTION ( 'NONE',  ( -1.000000000000000000, 0.0000000000000000000, 3.478481970057660322E-15 ) ) ;
#269 = CARTESIAN_POINT ( 'NONE',  ( 0.0000000000000000000, 0.0000000000000000000, 0.0000000000000000000 ) ) ;
#270 = VERTEX_POINT ( 'NONE', #134 ) ;
#271 = AXIS2_PLACEMENT_3D ( 'NONE', #98, #155, #356 ) ;
#272 = AXIS2_PLACEMENT_3D ( 'NONE', #46, #209, #68 ) ;
#273 = AXIS2_PLACEMENT_3D ( 'NONE', #128, #219, #131 ) ;
#274 = CYLINDRICAL_SURFACE ( 'NONE', #137, 1.499999999999995337 ) ;
#275 = PRODUCT_RELATED_PRODUCT_CATEGORY ( 'detail', '', ( #104 ) ) ;
#276 = CARTESIAN_POINT ( 'NONE',  ( -1.199999999999862732, 0.0000000000000000000, 38.00000000000000711 ) ) ;
#277 = AXIS2_PLACEMENT_3D ( 'NONE', #129, #132, #303 ) ;
#278 = CIRCLE ( 'NONE', #20, 0.9359999999999999432 ) ;
#279 = CARTESIAN_POINT ( 'NONE',  ( 0.0000000000000000000, 0.0000000000000000000, 0.0000000000000000000 ) ) ;
#280 = PERSON_AND_ORGANIZATION_ROLE ( 'design_supplier' ) ;
#281 = ORIENTED_EDGE ( 'NONE', *, *, #224, .F. ) ;
#282 = AXIS2_PLACEMENT_3D ( 'NONE', #180, #153, #94 ) ;
#283 = APPLICATION_CONTEXT ( 'configuration controlled 3d designs of mechanical parts and assemblies' ) ;
#284 = ORIENTED_EDGE ( 'NONE', *, *, #197, .T. ) ;
#285 = ORIENTED_EDGE ( 'NONE', *, *, #224, .T. ) ;
#286 = CARTESIAN_POINT ( 'NONE',  ( 1.560136810885384277E-15, 0.0000000000000000000, 0.4468409421321207775 ) ) ;
#287 = CC_DESIGN_PERSON_AND_ORGANIZATION_ASSIGNMENT ( #55, #107, ( #87 ) ) ;
#288 = CIRCLE ( 'NONE', #301, 1.199999999999999956 ) ;
#289 = DIRECTION ( 'NONE',  ( -1.000000000000000000, 0.0000000000000000000, 3.902314401364736560E-15 ) ) ;
#290 = LOCAL_TIME ( 8, 11, 14.00000000000000000, #27 ) ;
#291 = EDGE_CURVE ( 'NONE', #270, #270, #278, .T. ) ;
#292 = FACE_OUTER_BOUND ( 'NONE', #200, .T. ) ;
#293 = DIRECTION ( 'NONE',  ( -1.000000000000000000, 0.0000000000000000000, 3.478481970057660322E-15 ) ) ;
#294 = CC_DESIGN_DATE_AND_TIME_ASSIGNMENT ( #70, #121, ( #337 ) ) ;
#295 = FACE_BOUND ( 'NONE', #6, .T. ) ;
#296 = FACE_OUTER_BOUND ( 'NONE', #196, .T. ) ;
#297 = APPROVAL_STATUS ( 'not_yet_approved' ) ;
#298 = FACE_OUTER_BOUND ( 'NONE', #254, .T. ) ;
#299 = FACE_OUTER_BOUND ( 'NONE', #1, .T. ) ;
#300 = AXIS2_PLACEMENT_3D ( 'NONE', #99, #360, #358 ) ;
#301 = AXIS2_PLACEMENT_3D ( 'NONE', #103, #16, #293 ) ;
#302 = DIRECTION ( 'NONE',  ( -1.000000000000000000, 0.0000000000000000000, 3.475006963094565837E-15 ) ) ;
#303 = DIRECTION ( 'NONE',  ( -1.000000000000000000, 0.0000000000000000000, 3.491481338843133355E-15 ) ) ;
#304 = CYLINDRICAL_SURFACE ( 'NONE', #138, 1.199999999999999956 ) ;
#305 = EDGE_CURVE ( 'NONE', #307, #307, #312, .T. ) ;
#306 =( LENGTH_UNIT ( ) NAMED_UNIT ( * ) SI_UNIT ( .MILLI., .METRE. ) );
#307 = VERTEX_POINT ( 'NONE', #248 ) ;
#308 = FACE_OUTER_BOUND ( 'NONE', #139, .T. ) ;
#309 = DIRECTION ( 'NONE',  ( -3.491481338843133355E-15, 0.0000000000000000000, -1.000000000000000000 ) ) ;
#310 = CONICAL_SURFACE ( 'NONE', #51, 1.199999999999999956, 1.047197551196600296 ) ;
#311 = AXIS2_PLACEMENT_3D ( 'NONE', #93, #12, #354 ) ;
#312 = CIRCLE ( 'NONE', #135, 0.8549999999999990941 ) ;
#313 = VERTEX_POINT ( 'NONE', #48 ) ;
#314 = PERSON_AND_ORGANIZATION ( #28, #216 ) ;
#315 = EDGE_LOOP ( 'NONE', ( #320 ) ) ;
#316 = ORIENTED_EDGE ( 'NONE', *, *, #342, .T. ) ;
#317 = AXIS2_PLACEMENT_3D ( 'NONE', #97, #335, #289 ) ;
#318 = EDGE_CURVE ( 'NONE', #163, #163, #220, .T. ) ;
#319 = APPROVAL_PERSON_ORGANIZATION ( #109, #122, #253 ) ;
#320 = ORIENTED_EDGE ( 'NONE', *, *, #291, .F. ) ;
#321 = APPROVAL ( #297, 'UNSPECIFIED' ) ;
#322 = ORIENTED_EDGE ( 'NONE', *, *, #323, .T. ) ;
#323 = EDGE_CURVE ( 'NONE', #190, #190, #325, .T. ) ;
#324 = DIRECTION ( 'NONE',  ( -1.000000000000000000, 0.0000000000000000000, 3.491481338843133750E-15 ) ) ;
#325 = CIRCLE ( 'NONE', #184, 1.199999999999999956 ) ;
#326 = CC_DESIGN_DATE_AND_TIME_ASSIGNMENT ( #32, #2, ( #87 ) ) ;
#327 = PLANE ( 'NONE',  #149 ) ;
#328 = CARTESIAN_POINT ( 'NONE',  ( 1.560136810885384277E-15, 0.0000000000000000000, 0.4468409421321207775 ) ) ;
#329 = CARTESIAN_POINT ( 'NONE',  ( 2.932844324628232650E-14, 0.0000000000000000000, 8.400000000000000355 ) ) ;
#330 = DIRECTION ( 'NONE',  ( 1.000000000000000000, 0.0000000000000000000, -3.491481338843133355E-15 ) ) ;
#331 = DIRECTION ( 'NONE',  ( -1.000000000000000000, 0.0000000000000000000, 4.057832692343409354E-15 ) ) ;
#332 = AXIS2_PLACEMENT_3D ( 'NONE', #218, #210, #130 ) ;
#333 = AXIS2_PLACEMENT_3D ( 'NONE', #328, #71, #181 ) ;
#334 = CARTESIAN_POINT ( 'NONE',  ( 2.861883657520085192E-15, 0.0000000000000000000, 0.8196760571741565915 ) ) ;
#335 = DIRECTION ( 'NONE',  ( -3.491481338843133355E-15, 0.0000000000000000000, -1.000000000000000000 ) ) ;
#336 = CARTESIAN_POINT ( 'NONE',  ( -0.9359999999999993880, 0.0000000000000000000, 0.1000000000000034195 ) ) ;
#337 = SECURITY_CLASSIFICATION ( '', '', #4 ) ;
#338 = PERSON_AND_ORGANIZATION ( #28, #216 ) ;
#339 = DIRECTION ( 'NONE',  ( -3.491481338843133355E-15, 0.0000000000000000000, -1.000000000000000000 ) ) ;
#340 = COORDINATED_UNIVERSAL_TIME_OFFSET ( 1, 0, .AHEAD. ) ;
#341 = FACE_OUTER_BOUND ( 'NONE', #262, .T. ) ;
#342 = EDGE_CURVE ( 'NONE', #232, #232, #75, .T. ) ;
#343 = LOCAL_TIME ( 8, 11, 14.00000000000000000, #340 ) ;
#344 = APPROVAL_DATE_TIME ( #145, #122 ) ;
#345 = ORIENTED_EDGE ( 'NONE', *, *, #206, .T. ) ;
#346 = CALENDAR_DATE ( 2021, 17, 12 ) ;
#347 = EDGE_LOOP ( 'NONE', ( #175 ) ) ;
#348 = ADVANCED_FACE ( 'NONE', ( #243, #19 ), #54, .T. ) ;
#349 = APPLICATION_CONTEXT ( 'configuration controlled 3d designs of mechanical parts and assemblies' ) ;
#350 = EDGE_LOOP ( 'NONE', ( #285 ) ) ;
#351 = ORIENTED_EDGE ( 'NONE', *, *, #305, .F. ) ;
#352 = FACE_OUTER_BOUND ( 'NONE', #72, .T. ) ;
#353 = SHAPE_DEFINITION_REPRESENTATION ( #53, #176 ) ;
#354 = DIRECTION ( 'NONE',  ( 1.000000000000000000, 0.0000000000000000000, -3.469446951953624838E-15 ) ) ;
#355 = FACE_OUTER_BOUND ( 'NONE', #225, .T. ) ;
#356 = DIRECTION ( 'NONE',  ( 1.000000000000000000, 0.0000000000000000000, -3.491481338843133355E-15 ) ) ;
#357 = CARTESIAN_POINT ( 'NONE',  ( 2.932844324628232650E-14, 0.0000000000000000000, 8.400000000000000355 ) ) ;
#358 = DIRECTION ( 'NONE',  ( -1.000000000000000000, 0.0000000000000000000, 3.469446951953624838E-15 ) ) ;
#359 = DIRECTION ( 'NONE',  ( -3.491481338843133355E-15, 0.0000000000000000000, -1.000000000000000000 ) ) ;
#360 = DIRECTION ( 'NONE',  ( -3.491481338843133355E-15, 0.0000000000000000000, -1.000000000000000000 ) ) ;
#361 = AXIS2_PLACEMENT_3D ( 'NONE', #84, #194, #330 ) ;
#362 = FACE_OUTER_BOUND ( 'NONE', #350, .T. ) ;
#363 = ADVANCED_FACE ( 'NONE', ( #362 ), #213, .F. ) ;
ENDSEC;
END-ISO-10303-21;
