ISO-10303-21;
HEADER;
FILE_DESCRIPTION (( 'STEP AP203' ),
    '1' );
FILE_NAME ('378087.step',
    '2021-12-17T07:11:14',
    ( '' ),
    ( '' ),
    'SwSTEP 2.0',
    'SolidWorks 2019',
    '' );
FILE_SCHEMA (( 'CONFIG_CONTROL_DESIGN' ));
ENDSEC;

DATA;
#1 = CC_DESIGN_PERSON_AND_ORGANIZATION_ASSIGNMENT ( #217, #308, ( #102 ) ) ;
#2 = MANIFOLD_SOLID_BREP ( 'Corps-Déplacer/Copier1[2]', #155 ) ;
#3 = AXIS2_PLACEMENT_3D ( 'NONE', #17, #159, #359 ) ;
#4 = APPLICATION_CONTEXT ( 'configuration controlled 3d designs of mechanical parts and assemblies' ) ;
#5 = CARTESIAN_POINT ( 'NONE',  ( -0.7449999999999983302, 0.0000000000000000000, 0.4951281292110215060 ) ) ;
#6 = AXIS2_PLACEMENT_3D ( 'NONE', #129, #212, #247 ) ;
#7 = DIRECTION ( 'NONE',  ( 0.0000000000000000000, 0.0000000000000000000, 1.000000000000000000 ) ) ;
#8 = VERTEX_POINT ( 'NONE', #287 ) ;
#9 = CARTESIAN_POINT ( 'NONE',  ( -0.9849999999999990985, 0.0000000000000000000, 0.2665640646055129626 ) ) ;
#10 = DIRECTION ( 'NONE',  ( 1.000000000000000000, 0.0000000000000000000, 0.0000000000000000000 ) ) ;
#11 = ORIENTED_EDGE ( 'NONE', *, *, #263, .T. ) ;
#12 = FACE_OUTER_BOUND ( 'NONE', #186, .T. ) ;
#13 = EDGE_LOOP ( 'NONE', ( #11 ) ) ;
#14 = EDGE_LOOP ( 'NONE', ( #148 ) ) ;
#15 = ADVANCED_FACE ( 'NONE', ( #234 ), #358, .F. ) ;
#16 = ORIENTED_EDGE ( 'NONE', *, *, #185, .F. ) ;
#17 = CARTESIAN_POINT ( 'NONE',  ( 0.0000000000000000000, 0.0000000000000000000, 0.0000000000000000000 ) ) ;
#18 = COORDINATED_UNIVERSAL_TIME_OFFSET ( 1, 0, .AHEAD. ) ;
#19 = EDGE_LOOP ( 'NONE', ( #124 ) ) ;
#20 = DIRECTION ( 'NONE',  ( -3.491481338843133355E-15, 0.0000000000000000000, -1.000000000000000000 ) ) ;
#21 = APPROVAL_STATUS ( 'not_yet_approved' ) ;
#22 = CONICAL_SURFACE ( 'NONE', #113, 0.7449999999999999956, 1.047197551196600296 ) ;
#23 = APPROVAL ( #68, 'UNSPECIFIED' ) ;
#24 = AXIS2_PLACEMENT_3D ( 'NONE', #271, #128, #243 ) ;
#25 = DIRECTION ( 'NONE',  ( -3.491481338843133355E-15, 0.0000000000000000000, -1.000000000000000000 ) ) ;
#26 = FACE_OUTER_BOUND ( 'NONE', #332, .T. ) ;
#27 = FACE_OUTER_BOUND ( 'NONE', #346, .T. ) ;
#28 = PLANE ( 'NONE',  #72 ) ;
#29 = AXIS2_PLACEMENT_3D ( 'NONE', #351, #214, #335 ) ;
#30 = VERTEX_POINT ( 'NONE', #345 ) ;
#31 = EDGE_CURVE ( 'NONE', #32, #32, #174, .T. ) ;
#32 = VERTEX_POINT ( 'NONE', #260 ) ;
#33 = CARTESIAN_POINT ( 'NONE',  ( -0.9849999999999990985, 0.0000000000000000000, 0.2285640646055129843 ) ) ;
#34 = VERTEX_POINT ( 'NONE', #231 ) ;
#35 = COORDINATED_UNIVERSAL_TIME_OFFSET ( 1, 0, .AHEAD. ) ;
#36 = AXIS2_PLACEMENT_3D ( 'NONE', #275, #199, #44 ) ;
#37 = ORIENTED_EDGE ( 'NONE', *, *, #185, .T. ) ;
#38 = DIRECTION ( 'NONE',  ( 3.491481338843133355E-15, 0.0000000000000000000, 1.000000000000000000 ) ) ;
#39 = FACE_OUTER_BOUND ( 'NONE', #13, .T. ) ;
#40 = EDGE_CURVE ( 'NONE', #34, #34, #193, .T. ) ;
#41 = ORIENTED_EDGE ( 'NONE', *, *, #169, .F. ) ;
#42 = DIRECTION ( 'NONE',  ( 3.491481338843133355E-15, 0.0000000000000000000, 1.000000000000000000 ) ) ;
#43 = DIRECTION ( 'NONE',  ( 1.000000000000000000, 0.0000000000000000000, -3.491481338843133355E-15 ) ) ;
#44 = DIRECTION ( 'NONE',  ( -1.000000000000000000, 0.0000000000000000000, 5.782411586589379332E-15 ) ) ;
#45 = DIRECTION ( 'NONE',  ( -1.000000000000000000, 0.0000000000000000000, 3.533695969582388226E-15 ) ) ;
#46 = EDGE_LOOP ( 'NONE', ( #355 ) ) ;
#47 = DIRECTION ( 'NONE',  ( -1.000000000000000000, 0.0000000000000000000, 3.492731830825785437E-15 ) ) ;
#48 = DATE_AND_TIME ( #357, #223 ) ;
#49 = COORDINATED_UNIVERSAL_TIME_OFFSET ( 1, 0, .AHEAD. ) ;
#50 = CC_DESIGN_APPROVAL ( #23, ( #280 ) ) ;
#51 = PRODUCT ( '378087', '378087', '', ( #349 ) ) ;
#52 = SHAPE_DEFINITION_REPRESENTATION ( #133, #92 ) ;
#53 = ADVANCED_FACE ( 'NONE', ( #348, #39 ), #58, .T. ) ;
#54 = DIRECTION ( 'NONE',  ( -1.000000000000000000, 0.0000000000000000000, 3.494763347859366968E-15 ) ) ;
#55 = VERTEX_POINT ( 'NONE', #5 ) ;
#56 = CONICAL_SURFACE ( 'NONE', #36, 1.199999999999995293, 0.7853981633974453924 ) ;
#57 = CARTESIAN_POINT ( 'NONE',  ( 2.444036937190193349E-14, 0.0000000000000000000, 7.000000000000000000 ) ) ;
#58 = CONICAL_SURFACE ( 'NONE', #272, 0.9849999999999999867, 1.047197551196600074 ) ;
#59 = DIRECTION ( 'NONE',  ( -1.000000000000000000, 0.0000000000000000000, 3.491481338843133355E-15 ) ) ;
#60 = ORIENTED_EDGE ( 'NONE', *, *, #31, .F. ) ;
#61 = AXIS2_PLACEMENT_3D ( 'NONE', #179, #7, #10 ) ;
#62 = APPROVAL_DATE_TIME ( #204, #23 ) ;
#63 = CARTESIAN_POINT ( 'NONE',  ( -0.7090741737109048648, 0.0000000000000000000, 7.258819045102517187 ) ) ;
#64 = DIRECTION ( 'NONE',  ( 3.491481338843133355E-15, 0.0000000000000000000, 1.000000000000000000 ) ) ;
#65 = ADVANCED_FACE ( 'NONE', ( #121, #237 ), #343, .T. ) ;
#66 = AXIS2_PLACEMENT_3D ( 'NONE', #301, #42, #151 ) ;
#67 = EDGE_LOOP ( 'NONE', ( #157 ) ) ;
#68 = APPROVAL_STATUS ( 'not_yet_approved' ) ;
#69 = FACE_OUTER_BOUND ( 'NONE', #307, .T. ) ;
#70 = EDGE_LOOP ( 'NONE', ( #37 ) ) ;
#71 = CYLINDRICAL_SURFACE ( 'NONE', #3, 0.6749999999999993783 ) ;
#72 = AXIS2_PLACEMENT_3D ( 'NONE', #142, #232, #59 ) ;
#73 = EDGE_LOOP ( 'NONE', ( #100 ) ) ;
#74 = FACE_OUTER_BOUND ( 'NONE', #19, .T. ) ;
#75 = APPROVAL_ROLE ( '' ) ;
#76 = ORIENTED_EDGE ( 'NONE', *, *, #40, .T. ) ;
#77 = CIRCLE ( 'NONE', #267, 0.9849999999999999867 ) ;
#78 = EDGE_CURVE ( 'NONE', #258, #258, #77, .T. ) ;
#79 = FACE_BOUND ( 'NONE', #299, .T. ) ;
#80 = DATE_AND_TIME ( #156, #94 ) ;
#81 = CIRCLE ( 'NONE', #277, 1.499999999999995559 ) ;
#82 = EDGE_CURVE ( 'NONE', #114, #114, #261, .T. ) ;
#83 = CALENDAR_DATE ( 2021, 17, 12 ) ;
#84 = FACE_OUTER_BOUND ( 'NONE', #209, .T. ) ;
#85 = APPROVAL ( #134, 'UNSPECIFIED' ) ;
#86 = APPLICATION_PROTOCOL_DEFINITION ( 'international standard', 'config_control_design', 1994, #286 ) ;
#87 = ADVANCED_FACE ( 'NONE', ( #189 ), #130, .T. ) ;
#88 = AXIS2_PLACEMENT_3D ( 'NONE', #316, #20, #109 ) ;
#89 = EDGE_LOOP ( 'NONE', ( #145 ) ) ;
#90 = AXIS2_PLACEMENT_3D ( 'NONE', #218, #180, #43 ) ;
#91 = CARTESIAN_POINT ( 'NONE',  ( 0.0000000000000000000, 0.0000000000000000000, 0.0000000000000000000 ) ) ;
#92 = ADVANCED_BREP_SHAPE_REPRESENTATION ( '378087', ( #249, #2, #61 ), #282 ) ;
#93 = ORIENTED_EDGE ( 'NONE', *, *, #319, .F. ) ;
#94 = LOCAL_TIME ( 8, 11, 14.00000000000000000, #49 ) ;
#95 = FACE_OUTER_BOUND ( 'NONE', #208, .T. ) ;
#96 = ORIENTED_EDGE ( 'NONE', *, *, #153, .T. ) ;
#97 = CONICAL_SURFACE ( 'NONE', #6, 1.499999999999995559, 0.2617993877991424134 ) ;
#98 = ORIENTED_EDGE ( 'NONE', *, *, #31, .T. ) ;
#99 = DIRECTION ( 'NONE',  ( -1.000000000000000000, 0.0000000000000000000, 3.491481338843133355E-15 ) ) ;
#100 = ORIENTED_EDGE ( 'NONE', *, *, #82, .T. ) ;
#101 = DIRECTION ( 'NONE',  ( -1.000000000000000000, 0.0000000000000000000, 3.854941057726241844E-15 ) ) ;
#102 = PRODUCT_DEFINITION_FORMATION_WITH_SPECIFIED_SOURCE ( 'ANY', '', #51, .NOT_KNOWN. ) ;
#103 = ADVANCED_FACE ( 'NONE', ( #69, #305 ), #236, .T. ) ;
#104 = EDGE_LOOP ( 'NONE', ( #76 ) ) ;
#105 = AXIS2_PLACEMENT_3D ( 'NONE', #132, #192, #47 ) ;
#106 = ADVANCED_FACE ( 'NONE', ( #240 ), #298, .F. ) ;
#107 = PERSON_AND_ORGANIZATION ( #177, #160 ) ;
#108 = DIRECTION ( 'NONE',  ( -3.491481338843133355E-15, 0.0000000000000000000, -1.000000000000000000 ) ) ;
#109 = DIRECTION ( 'NONE',  ( -1.000000000000000000, 0.0000000000000000000, 3.492731830825786226E-15 ) ) ;
#110 = VERTEX_POINT ( 'NONE', #165 ) ;
#111 = DIRECTION ( 'NONE',  ( -3.491481338843133355E-15, 0.0000000000000000000, -1.000000000000000000 ) ) ;
#112 = DIRECTION ( 'NONE',  ( -3.491481338843133355E-15, 0.0000000000000000000, -1.000000000000000000 ) ) ;
#113 = AXIS2_PLACEMENT_3D ( 'NONE', #279, #255, #309 ) ;
#114 = VERTEX_POINT ( 'NONE', #173 ) ;
#115 = UNCERTAINTY_MEASURE_WITH_UNIT (LENGTH_MEASURE( 1.000000000000000082E-05 ), #342, 'distance_accuracy_value', 'NONE');
#116 = CALENDAR_DATE ( 2021, 17, 12 ) ;
#117 = DIRECTION ( 'NONE',  ( -1.000000000000000000, 0.0000000000000000000, 3.491481338843133355E-15 ) ) ;
#118 = AXIS2_PLACEMENT_3D ( 'NONE', #181, #313, #154 ) ;
#119 = EDGE_LOOP ( 'NONE', ( #98 ) ) ;
#120 = CC_DESIGN_PERSON_AND_ORGANIZATION_ASSIGNMENT ( #107, #315, ( #187 ) ) ;
#121 = FACE_OUTER_BOUND ( 'NONE', #67, .T. ) ;
#122 = CIRCLE ( 'NONE', #88, 0.7449999999999999956 ) ;
#123 = DIRECTION ( 'NONE',  ( 1.000000000000000000, 0.0000000000000000000, -3.491481338843133355E-15 ) ) ;
#124 = ORIENTED_EDGE ( 'NONE', *, *, #136, .F. ) ;
#125 = FACE_OUTER_BOUND ( 'NONE', #182, .T. ) ;
#126 = CARTESIAN_POINT ( 'NONE',  ( 2.619571670050436789E-15, 0.0000000000000000000, 0.7502751456544816122 ) ) ;
#127 = AXIS2_PLACEMENT_3D ( 'NONE', #337, #226, #101 ) ;
#128 = DIRECTION ( 'NONE',  ( -3.491481338843133355E-15, 0.0000000000000000000, -1.000000000000000000 ) ) ;
#129 = CARTESIAN_POINT ( 'NONE',  ( 3.565009985438961733E-14, 0.0000000000000000000, 10.21059441383178523 ) ) ;
#130 = PLANE ( 'NONE',  #229 ) ;
#131 = EDGE_LOOP ( 'NONE', ( #137 ) ) ;
#132 = CARTESIAN_POINT ( 'NONE',  ( 1.728730623476584237E-15, 0.0000000000000000000, 0.4951281292110188970 ) ) ;
#133 = PRODUCT_DEFINITION_SHAPE ( 'NONE', 'NONE',  #280 ) ;
#134 = APPROVAL_STATUS ( 'not_yet_approved' ) ;
#135 = CARTESIAN_POINT ( 'NONE',  ( -1.499999999999959810, 0.0000000000000000000, 10.21059441383179056 ) ) ;
#136 = EDGE_CURVE ( 'NONE', #8, #8, #284, .T. ) ;
#137 = ORIENTED_EDGE ( 'NONE', *, *, #78, .T. ) ;
#138 = AXIS2_PLACEMENT_3D ( 'NONE', #278, #25, #117 ) ;
#139 =( NAMED_UNIT ( * ) SI_UNIT ( $, .STERADIAN. ) SOLID_ANGLE_UNIT ( ) );
#140 = ORIENTED_EDGE ( 'NONE', *, *, #153, .F. ) ;
#141 = DIRECTION ( 'NONE',  ( -1.000000000000000000, 0.0000000000000000000, 3.467245526222679285E-15 ) ) ;
#142 = CARTESIAN_POINT ( 'NONE',  ( 1.326762908760390423E-13, 0.0000000000000000000, 38.00000000000000000 ) ) ;
#143 = AXIS2_PLACEMENT_3D ( 'NONE', #162, #288, #285 ) ;
#144 = ADVANCED_FACE ( 'NONE', ( #12, #95 ), #146, .F. ) ;
#145 = ORIENTED_EDGE ( 'NONE', *, *, #248, .T. ) ;
#146 = TOROIDAL_SURFACE ( 'NONE', #118, 1.174999999999999378, 0.5000000000000000000 ) ;
#147 = CARTESIAN_POINT ( 'NONE',  ( 7.980271663002728137E-16, 0.0000000000000000000, 0.2285640646055095426 ) ) ;
#148 = ORIENTED_EDGE ( 'NONE', *, *, #253, .F. ) ;
#149 = LOCAL_TIME ( 8, 11, 14.00000000000000000, #150 ) ;
#150 = COORDINATED_UNIVERSAL_TIME_OFFSET ( 1, 0, .AHEAD. ) ;
#151 = DIRECTION ( 'NONE',  ( 1.000000000000000000, 0.0000000000000000000, -3.491481338843133355E-15 ) ) ;
#152 = ORIENTED_EDGE ( 'NONE', *, *, #178, .T. ) ;
#153 = EDGE_CURVE ( 'NONE', #205, #205, #163, .T. ) ;
#154 = DIRECTION ( 'NONE',  ( -1.000000000000000000, 0.0000000000000000000, 3.491481338843133355E-15 ) ) ;
#155 = CLOSED_SHELL ( 'NONE', ( #15, #103, #53, #194, #338, #65, #87 ) ) ;
#156 = CALENDAR_DATE ( 2021, 17, 12 ) ;
#157 = ORIENTED_EDGE ( 'NONE', *, *, #40, .F. ) ;
#158 = CC_DESIGN_DATE_AND_TIME_ASSIGNMENT ( #222, #311, ( #280 ) ) ;
#159 = DIRECTION ( 'NONE',  ( -3.491481338843133355E-15, 0.0000000000000000000, -1.000000000000000000 ) ) ;
#160 = ORGANIZATION ( 'UNSPECIFIED', 'UNSPECIFIED', '' ) ;
#161 = DATE_TIME_ROLE ( 'classification_date' ) ;
#162 = CARTESIAN_POINT ( 'NONE',  ( 0.0000000000000000000, 0.0000000000000000000, 0.0000000000000000000 ) ) ;
#163 = CIRCLE ( 'NONE', #336, 0.7090741737109302889 ) ;
#164 = FACE_OUTER_BOUND ( 'NONE', #206, .T. ) ;
#165 = CARTESIAN_POINT ( 'NONE',  ( -0.7449999999999996625, 0.0000000000000000000, 0.09000000000000267508 ) ) ;
#166 = TOROIDAL_SURFACE ( 'NONE', #246, 1.674999999999999378, 0.9999999999999995559 ) ;
#167 = DIRECTION ( 'NONE',  ( -3.491481338843133355E-15, 0.0000000000000000000, -1.000000000000000000 ) ) ;
#168 = VERTEX_POINT ( 'NONE', #207 ) ;
#169 = EDGE_CURVE ( 'NONE', #176, #176, #326, .T. ) ;
#170 = CARTESIAN_POINT ( 'NONE',  ( 9.307034571763119167E-16, 0.0000000000000000000, 0.2665640646055095209 ) ) ;
#171 = LOCAL_TIME ( 8, 11, 14.00000000000000000, #35 ) ;
#172 = EDGE_LOOP ( 'NONE', ( #152 ) ) ;
#173 = CARTESIAN_POINT ( 'NONE',  ( -1.499999999999863665, 0.0000000000000000000, 37.70000000000000284 ) ) ;
#174 = CIRCLE ( 'NONE', #24, 1.199999999999995293 ) ;
#175 = PERSON_AND_ORGANIZATION ( #177, #160 ) ;
#176 = VERTEX_POINT ( 'NONE', #225 ) ;
#177 = PERSON ( 'UNSPECIFIED', 'UNSPECIFIED', 'UNSPECIFIED', ('UNSPECIFIED'), ('UNSPECIFIED'), ('UNSPECIFIED') ) ;
#178 = EDGE_CURVE ( 'NONE', #168, #168, #220, .T. ) ;
#179 = CARTESIAN_POINT ( 'NONE',  ( 0.0000000000000000000, 0.0000000000000000000, 0.0000000000000000000 ) ) ;
#180 = DIRECTION ( 'NONE',  ( 3.491481338843133355E-15, 0.0000000000000000000, 1.000000000000000000 ) ) ;
#181 = CARTESIAN_POINT ( 'NONE',  ( 2.619571670050436789E-15, 0.0000000000000000000, 0.7502751456544816122 ) ) ;
#182 = EDGE_LOOP ( 'NONE', ( #241 ) ) ;
#183 = PERSON_AND_ORGANIZATION ( #177, #160 ) ;
#184 = DIRECTION ( 'NONE',  ( -3.491481338843133355E-15, 0.0000000000000000000, -1.000000000000000000 ) ) ;
#185 = EDGE_CURVE ( 'NONE', #30, #30, #202, .T. ) ;
#186 = EDGE_LOOP ( 'NONE', ( #323 ) ) ;
#187 = SECURITY_CLASSIFICATION ( '', '', #252 ) ;
#188 = FACE_OUTER_BOUND ( 'NONE', #245, .T. ) ;
#189 = FACE_OUTER_BOUND ( 'NONE', #328, .T. ) ;
#190 = LOCAL_TIME ( 8, 11, 14.00000000000000000, #251 ) ;
#191 = ORIENTED_EDGE ( 'NONE', *, *, #78, .F. ) ;
#192 = DIRECTION ( 'NONE',  ( -3.491481338843133355E-15, 0.0000000000000000000, -1.000000000000000000 ) ) ;
#193 = CIRCLE ( 'NONE', #29, 0.7449999999999999956 ) ;
#194 = ADVANCED_FACE ( 'NONE', ( #125, #256 ), #304, .T. ) ;
#195 = DIRECTION ( 'NONE',  ( -3.491481338843133355E-15, 0.0000000000000000000, -1.000000000000000000 ) ) ;
#196 = APPROVAL_DATE_TIME ( #80, #297 ) ;
#197 = PERSON_AND_ORGANIZATION ( #177, #160 ) ;
#198 = FACE_BOUND ( 'NONE', #104, .T. ) ;
#199 = DIRECTION ( 'NONE',  ( -3.491481338843133355E-15, 0.0000000000000000000, -1.000000000000000000 ) ) ;
#200 = CARTESIAN_POINT ( 'NONE',  ( 1.316288464743861212E-13, 0.0000000000000000000, 37.69999999999999574 ) ) ;
#201 = DIRECTION ( 'NONE',  ( -3.491481338843133355E-15, 0.0000000000000000000, -1.000000000000000000 ) ) ;
#202 = CIRCLE ( 'NONE', #127, 0.6749999999999992673 ) ;
#203 = DESIGN_CONTEXT ( 'detailed design', #286, 'design' ) ;
#204 = DATE_AND_TIME ( #116, #149 ) ;
#205 = VERTEX_POINT ( 'NONE', #63 ) ;
#206 = EDGE_LOOP ( 'NONE', ( #16 ) ) ;
#207 = CARTESIAN_POINT ( 'NONE',  ( -0.7449999999999999956, 0.0000000000000000000, 2.614706124594202997E-15 ) ) ;
#208 = EDGE_LOOP ( 'NONE', ( #302 ) ) ;
#209 = EDGE_LOOP ( 'NONE', ( #60 ) ) ;
#210 = ADVANCED_FACE ( 'NONE', ( #79, #242 ), #97, .T. ) ;
#211 = ORIENTED_EDGE ( 'NONE', *, *, #253, .T. ) ;
#212 = DIRECTION ( 'NONE',  ( 3.491481338843133355E-15, 0.0000000000000000000, 1.000000000000000000 ) ) ;
#213 = APPROVAL_DATE_TIME ( #331, #85 ) ;
#214 = DIRECTION ( 'NONE',  ( -3.491481338843133355E-15, 0.0000000000000000000, -1.000000000000000000 ) ) ;
#215 = CIRCLE ( 'NONE', #254, 0.7450000000000001066 ) ;
#216 = FACE_BOUND ( 'NONE', #119, .T. ) ;
#217 = PERSON_AND_ORGANIZATION ( #177, #160 ) ;
#218 = CARTESIAN_POINT ( 'NONE',  ( 2.365919782978951696E-32, 0.0000000000000000000, 6.776263578034402713E-18 ) ) ;
#219 = CARTESIAN_POINT ( 'NONE',  ( 2.534403123801456247E-14, 0.0000000000000000000, 7.258819045102514522 ) ) ;
#220 = CIRCLE ( 'NONE', #318, 0.7449999999999999956 ) ;
#221 = PERSON_AND_ORGANIZATION_ROLE ( 'design_supplier' ) ;
#222 = DATE_AND_TIME ( #264, #171 ) ;
#223 = LOCAL_TIME ( 8, 11, 14.00000000000000000, #18 ) ;
#224 = DIRECTION ( 'NONE',  ( -1.000000000000000000, 0.0000000000000000000, 3.469446951953624444E-15 ) ) ;
#225 = CARTESIAN_POINT ( 'NONE',  ( -0.7449999999999983302, 0.0000000000000000000, 0.4951281292110215060 ) ) ;
#226 = DIRECTION ( 'NONE',  ( -3.491481338843133355E-15, 0.0000000000000000000, -1.000000000000000000 ) ) ;
#227 = APPROVAL_PERSON_ORGANIZATION ( #339, #85, #75 ) ;
#228 = ADVANCED_FACE ( 'NONE', ( #74, #329 ), #71, .T. ) ;
#229 = AXIS2_PLACEMENT_3D ( 'NONE', #327, #38, #123 ) ;
#230 = DIRECTION ( 'NONE',  ( -1.000000000000000000, 0.0000000000000000000, 4.625929269271500311E-15 ) ) ;
#231 = CARTESIAN_POINT ( 'NONE',  ( -0.7449999999999985523, 0.0000000000000000000, 0.4051281292110214816 ) ) ;
#232 = DIRECTION ( 'NONE',  ( -3.491481338843133355E-15, 0.0000000000000000000, -1.000000000000000000 ) ) ;
#233 = PRODUCT_RELATED_PRODUCT_CATEGORY ( 'detail', '', ( #51 ) ) ;
#234 = FACE_OUTER_BOUND ( 'NONE', #172, .T. ) ;
#235 = APPLICATION_PROTOCOL_DEFINITION ( 'international standard', 'config_control_design', 1994, #4 ) ;
#236 = CYLINDRICAL_SURFACE ( 'NONE', #354, 0.7449999999999999956 ) ;
#237 = FACE_OUTER_BOUND ( 'NONE', #46, .T. ) ;
#238 = ADVANCED_FACE ( 'NONE', ( #188, #216 ), #56, .T. ) ;
#239 = PERSON_AND_ORGANIZATION ( #177, #160 ) ;
#240 = FACE_OUTER_BOUND ( 'NONE', #89, .T. ) ;
#241 = ORIENTED_EDGE ( 'NONE', *, *, #263, .F. ) ;
#242 = FACE_OUTER_BOUND ( 'NONE', #325, .T. ) ;
#243 = DIRECTION ( 'NONE',  ( -1.000000000000000000, 0.0000000000000000000, 5.782411586589379332E-15 ) ) ;
#244 = DIRECTION ( 'NONE',  ( -3.491481338843133355E-15, 0.0000000000000000000, -1.000000000000000000 ) ) ;
#245 = EDGE_LOOP ( 'NONE', ( #274 ) ) ;
#246 = AXIS2_PLACEMENT_3D ( 'NONE', #57, #167, #283 ) ;
#247 = DIRECTION ( 'NONE',  ( 1.000000000000000000, 0.0000000000000000000, -3.469446951953624444E-15 ) ) ;
#248 = EDGE_CURVE ( 'NONE', #55, #55, #215, .T. ) ;
#249 = MANIFOLD_SOLID_BREP ( 'Corps-Déplacer/Copier1[1]', #321 ) ;
#250 = AXIS2_PLACEMENT_3D ( 'NONE', #310, #111, #99 ) ;
#251 = COORDINATED_UNIVERSAL_TIME_OFFSET ( 1, 0, .AHEAD. ) ;
#252 = SECURITY_CLASSIFICATION_LEVEL ( 'unclassified' ) ;
#253 = EDGE_CURVE ( 'NONE', #110, #110, #122, .T. ) ;
#254 = AXIS2_PLACEMENT_3D ( 'NONE', #273, #244, #356 ) ;
#255 = DIRECTION ( 'NONE',  ( -3.491481338843133355E-15, 0.0000000000000000000, -1.000000000000000000 ) ) ;
#256 = FACE_OUTER_BOUND ( 'NONE', #131, .T. ) ;
#257 = CC_DESIGN_APPROVAL ( #85, ( #102 ) ) ;
#258 = VERTEX_POINT ( 'NONE', #9 ) ;
#259 = VERTEX_POINT ( 'NONE', #33 ) ;
#260 = CARTESIAN_POINT ( 'NONE',  ( -1.199999999999862732, 0.0000000000000000000, 38.00000000000000711 ) ) ;
#261 = CIRCLE ( 'NONE', #314, 1.499999999999995337 ) ;
#262 = CARTESIAN_POINT ( 'NONE',  ( 3.565009985438961733E-14, 0.0000000000000000000, 10.21059441383178523 ) ) ;
#263 = EDGE_CURVE ( 'NONE', #259, #259, #333, .T. ) ;
#264 = CALENDAR_DATE ( 2021, 17, 12 ) ;
#265 = APPROVAL_PERSON_ORGANIZATION ( #183, #23, #300 ) ;
#266 = EDGE_LOOP ( 'NONE', ( #211 ) ) ;
#267 = AXIS2_PLACEMENT_3D ( 'NONE', #170, #292, #141 ) ;
#268 = DIRECTION ( 'NONE',  ( 1.000000000000000000, 0.0000000000000000000, -3.494763347859366968E-15 ) ) ;
#269 = EDGE_LOOP ( 'NONE', ( #191 ) ) ;
#270 = DIRECTION ( 'NONE',  ( -1.000000000000000000, 0.0000000000000000000, 3.669693962124205158E-15 ) ) ;
#271 = CARTESIAN_POINT ( 'NONE',  ( 1.326762908760390423E-13, 0.0000000000000000000, 38.00000000000000000 ) ) ;
#272 = AXIS2_PLACEMENT_3D ( 'NONE', #147, #64, #268 ) ;
#273 = CARTESIAN_POINT ( 'NONE',  ( 1.728730623476584237E-15, 0.0000000000000000000, 0.4951281292110188970 ) ) ;
#274 = ORIENTED_EDGE ( 'NONE', *, *, #82, .F. ) ;
#275 = CARTESIAN_POINT ( 'NONE',  ( 1.326762908760390423E-13, 0.0000000000000000000, 38.00000000000000000 ) ) ;
#276 = CYLINDRICAL_SURFACE ( 'NONE', #143, 1.499999999999995337 ) ;
#277 = AXIS2_PLACEMENT_3D ( 'NONE', #262, #108, #224 ) ;
#278 = CARTESIAN_POINT ( 'NONE',  ( 0.0000000000000000000, 0.0000000000000000000, 0.0000000000000000000 ) ) ;
#279 = CARTESIAN_POINT ( 'NONE',  ( 1.414497302980702157E-15, 0.0000000000000000000, 0.4051281292110188725 ) ) ;
#280 = PRODUCT_DEFINITION ( 'UNKNOWN', '', #102, #203 ) ;
#281 = CARTESIAN_POINT ( 'NONE',  ( 7.980271663002728137E-16, 0.0000000000000000000, 0.2285640646055095426 ) ) ;
#282 =( GEOMETRIC_REPRESENTATION_CONTEXT ( 3 ) GLOBAL_UNCERTAINTY_ASSIGNED_CONTEXT ( ( #115 ) ) GLOBAL_UNIT_ASSIGNED_CONTEXT ( ( #342, #344, #139 ) ) REPRESENTATION_CONTEXT ( 'NONE', 'WORKASPACE' ) );
#283 = DIRECTION ( 'NONE',  ( -1.000000000000000000, 0.0000000000000000000, 3.491481338843133355E-15 ) ) ;
#284 = CIRCLE ( 'NONE', #289, 0.6749999999999993783 ) ;
#285 = DIRECTION ( 'NONE',  ( -1.000000000000000000, 0.0000000000000000000, 3.491481338843133355E-15 ) ) ;
#286 = APPLICATION_CONTEXT ( 'configuration controlled 3d designs of mechanical parts and assemblies' ) ;
#287 = CARTESIAN_POINT ( 'NONE',  ( -0.6749999999999968248, 0.0000000000000000000, 0.7502751456544840547 ) ) ;
#288 = DIRECTION ( 'NONE',  ( -3.491481338843133355E-15, 0.0000000000000000000, -1.000000000000000000 ) ) ;
#289 = AXIS2_PLACEMENT_3D ( 'NONE', #126, #350, #45 ) ;
#290 = ADVANCED_FACE ( 'NONE', ( #164, #27 ), #166, .F. ) ;
#291 = PERSON_AND_ORGANIZATION_ROLE ( 'creator' ) ;
#292 = DIRECTION ( 'NONE',  ( -3.491481338843133355E-15, 0.0000000000000000000, -1.000000000000000000 ) ) ;
#293 = APPROVAL_PERSON_ORGANIZATION ( #361, #297, #306 ) ;
#294 = ADVANCED_FACE ( 'NONE', ( #84 ), #28, .F. ) ;
#295 = DIRECTION ( 'NONE',  ( -1.000000000000000000, 0.0000000000000000000, 3.491481338843133355E-15 ) ) ;
#296 = ORIENTED_EDGE ( 'NONE', *, *, #178, .F. ) ;
#297 = APPROVAL ( #21, 'UNSPECIFIED' ) ;
#298 = PLANE ( 'NONE',  #66 ) ;
#299 = EDGE_LOOP ( 'NONE', ( #140 ) ) ;
#300 = APPROVAL_ROLE ( '' ) ;
#301 = CARTESIAN_POINT ( 'NONE',  ( 1.728730623476584237E-15, -7.205624071802282836E-17, 0.4951281292110188970 ) ) ;
#302 = ORIENTED_EDGE ( 'NONE', *, *, #136, .T. ) ;
#303 = AXIS2_PLACEMENT_3D ( 'NONE', #281, #195, #54 ) ;
#304 = CYLINDRICAL_SURFACE ( 'NONE', #250, 0.9849999999999999867 ) ;
#305 = FACE_OUTER_BOUND ( 'NONE', #266, .T. ) ;
#306 = APPROVAL_ROLE ( '' ) ;
#307 = EDGE_LOOP ( 'NONE', ( #296 ) ) ;
#308 = PERSON_AND_ORGANIZATION_ROLE ( 'creator' ) ;
#309 = DIRECTION ( 'NONE',  ( -1.000000000000000000, 0.0000000000000000000, 3.492731830825786226E-15 ) ) ;
#310 = CARTESIAN_POINT ( 'NONE',  ( 0.0000000000000000000, 0.0000000000000000000, 0.0000000000000000000 ) ) ;
#311 = DATE_TIME_ROLE ( 'creation_date' ) ;
#312 = FACE_OUTER_BOUND ( 'NONE', #269, .T. ) ;
#313 = DIRECTION ( 'NONE',  ( -3.491481338843133355E-15, 0.0000000000000000000, -1.000000000000000000 ) ) ;
#314 = AXIS2_PLACEMENT_3D ( 'NONE', #200, #112, #230 ) ;
#315 = PERSON_AND_ORGANIZATION_ROLE ( 'classification_officer' ) ;
#316 = CARTESIAN_POINT ( 'NONE',  ( 3.142333204958822288E-16, 0.0000000000000000000, 0.09000000000000007994 ) ) ;
#317 = CARTESIAN_POINT ( 'NONE',  ( 4.731839565957903391E-32, 0.0000000000000000000, 1.355252715606880543E-17 ) ) ;
#318 = AXIS2_PLACEMENT_3D ( 'NONE', #317, #363, #334 ) ;
#319 = EDGE_CURVE ( 'NONE', #340, #340, #81, .T. ) ;
#320 = CC_DESIGN_DATE_AND_TIME_ASSIGNMENT ( #48, #161, ( #187 ) ) ;
#321 = CLOSED_SHELL ( 'NONE', ( #106, #144, #228, #290, #210, #360, #238, #294 ) ) ;
#322 = CC_DESIGN_SECURITY_CLASSIFICATION ( #187, ( #102 ) ) ;
#323 = ORIENTED_EDGE ( 'NONE', *, *, #248, .F. ) ;
#324 = CC_DESIGN_PERSON_AND_ORGANIZATION_ASSIGNMENT ( #197, #221, ( #102 ) ) ;
#325 = EDGE_LOOP ( 'NONE', ( #353 ) ) ;
#326 = CIRCLE ( 'NONE', #105, 0.7450000000000001066 ) ;
#327 = CARTESIAN_POINT ( 'NONE',  ( 1.728730623476584237E-15, -7.205624071802282836E-17, 0.4951281292110188970 ) ) ;
#328 = EDGE_LOOP ( 'NONE', ( #41 ) ) ;
#329 = FACE_OUTER_BOUND ( 'NONE', #70, .T. ) ;
#330 = CC_DESIGN_PERSON_AND_ORGANIZATION_ASSIGNMENT ( #239, #352, ( #51 ) ) ;
#331 = DATE_AND_TIME ( #83, #190 ) ;
#332 = EDGE_LOOP ( 'NONE', ( #93 ) ) ;
#333 = CIRCLE ( 'NONE', #303, 0.9849999999999999867 ) ;
#334 = DIRECTION ( 'NONE',  ( -1.000000000000000000, 0.0000000000000000000, 3.491481338843133355E-15 ) ) ;
#335 = DIRECTION ( 'NONE',  ( -1.000000000000000000, 0.0000000000000000000, 3.492731830825786226E-15 ) ) ;
#336 = AXIS2_PLACEMENT_3D ( 'NONE', #219, #201, #270 ) ;
#337 = CARTESIAN_POINT ( 'NONE',  ( 2.444036937190193349E-14, 0.0000000000000000000, 7.000000000000000000 ) ) ;
#338 = ADVANCED_FACE ( 'NONE', ( #312, #198 ), #22, .T. ) ;
#339 = PERSON_AND_ORGANIZATION ( #177, #160 ) ;
#340 = VERTEX_POINT ( 'NONE', #135 ) ;
#341 = FACE_OUTER_BOUND ( 'NONE', #73, .T. ) ;
#342 =( LENGTH_UNIT ( ) NAMED_UNIT ( * ) SI_UNIT ( .MILLI., .METRE. ) );
#343 = CYLINDRICAL_SURFACE ( 'NONE', #138, 0.7449999999999999956 ) ;
#344 =( NAMED_UNIT ( * ) PLANE_ANGLE_UNIT ( ) SI_UNIT ( $, .RADIAN. ) );
#345 = CARTESIAN_POINT ( 'NONE',  ( -0.6749999999999748423, 0.0000000000000000000, 7.000000000000002665 ) ) ;
#346 = EDGE_LOOP ( 'NONE', ( #96 ) ) ;
#347 = CC_DESIGN_PERSON_AND_ORGANIZATION_ASSIGNMENT ( #175, #291, ( #280 ) ) ;
#348 = FACE_BOUND ( 'NONE', #14, .T. ) ;
#349 = MECHANICAL_CONTEXT ( 'NONE', #4, 'mechanical' ) ;
#350 = DIRECTION ( 'NONE',  ( -3.491481338843133355E-15, 0.0000000000000000000, -1.000000000000000000 ) ) ;
#351 = CARTESIAN_POINT ( 'NONE',  ( 1.414497302980702157E-15, 0.0000000000000000000, 0.4051281292110188725 ) ) ;
#352 = PERSON_AND_ORGANIZATION_ROLE ( 'design_owner' ) ;
#353 = ORIENTED_EDGE ( 'NONE', *, *, #319, .T. ) ;
#354 = AXIS2_PLACEMENT_3D ( 'NONE', #91, #184, #295 ) ;
#355 = ORIENTED_EDGE ( 'NONE', *, *, #169, .T. ) ;
#356 = DIRECTION ( 'NONE',  ( -1.000000000000000000, 0.0000000000000000000, 3.492731830825785437E-15 ) ) ;
#357 = CALENDAR_DATE ( 2021, 17, 12 ) ;
#358 = PLANE ( 'NONE',  #90 ) ;
#359 = DIRECTION ( 'NONE',  ( -1.000000000000000000, 0.0000000000000000000, 3.491481338843133750E-15 ) ) ;
#360 = ADVANCED_FACE ( 'NONE', ( #26, #341 ), #276, .T. ) ;
#361 = PERSON_AND_ORGANIZATION ( #177, #160 ) ;
#362 = CC_DESIGN_APPROVAL ( #297, ( #187 ) ) ;
#363 = DIRECTION ( 'NONE',  ( -3.491481338843133355E-15, 0.0000000000000000000, -1.000000000000000000 ) ) ;
ENDSEC;
END-ISO-10303-21;
