ISO-10303-21;
HEADER;
FILE_DESCRIPTION (( 'STEP AP203' ),
    '1' );
FILE_NAME ('378086.step',
    '2021-12-17T07:11:14',
    ( '' ),
    ( '' ),
    'SwSTEP 2.0',
    'SolidWorks 2019',
    '' );
FILE_SCHEMA (( 'CONFIG_CONTROL_DESIGN' ));
ENDSEC;

DATA;
#1 = CARTESIAN_POINT ( 'NONE',  ( 2.619571670050434422E-15, 0.0000000000000000000, 0.7502751456544809461 ) ) ;
#2 = DIRECTION ( 'NONE',  ( -1.000000000000000000, 0.0000000000000000000, 3.491481338843133355E-15 ) ) ;
#3 = CIRCLE ( 'NONE', #51, 0.5949999999999998623 ) ;
#4 = AXIS2_PLACEMENT_3D ( 'NONE', #259, #75, #266 ) ;
#5 = VERTEX_POINT ( 'NONE', #223 ) ;
#6 = EDGE_LOOP ( 'NONE', ( #217 ) ) ;
#7 = PERSON_AND_ORGANIZATION_ROLE ( 'design_owner' ) ;
#8 = VERTEX_POINT ( 'NONE', #252 ) ;
#9 = ADVANCED_FACE ( 'NONE', ( #90, #153 ), #18, .T. ) ;
#10 = CARTESIAN_POINT ( 'NONE',  ( -0.5949999999999995293, 0.0000000000000000000, 0.09000000000000209222 ) ) ;
#11 = ORIENTED_EDGE ( 'NONE', *, *, #15, .F. ) ;
#12 = TOROIDAL_SURFACE ( 'NONE', #262, 1.024999999999999467, 0.5000000000000000000 ) ;
#13 = EDGE_LOOP ( 'NONE', ( #264 ) ) ;
#14 = DIRECTION ( 'NONE',  ( -3.491481338843133355E-15, 0.0000000000000000000, -1.000000000000000000 ) ) ;
#15 = EDGE_CURVE ( 'NONE', #149, #149, #265, .T. ) ;
#16 = MANIFOLD_SOLID_BREP ( 'Corps-Déplacer/Copier1[2]', #175 ) ;
#17 = LOCAL_TIME ( 8, 11, 14.00000000000000000, #145 ) ;
#18 = CONICAL_SURFACE ( 'NONE', #356, 0.5949999999999999734, 1.047197551196600296 ) ;
#19 = ADVANCED_FACE ( 'NONE', ( #53, #22 ), #267, .T. ) ;
#20 = FACE_OUTER_BOUND ( 'NONE', #82, .T. ) ;
#21 = ORIENTED_EDGE ( 'NONE', *, *, #321, .T. ) ;
#22 = FACE_OUTER_BOUND ( 'NONE', #334, .T. ) ;
#23 = FACE_OUTER_BOUND ( 'NONE', #64, .T. ) ;
#24 = ADVANCED_FACE ( 'NONE', ( #263, #20 ), #320, .T. ) ;
#25 = DATE_AND_TIME ( #246, #17 ) ;
#26 = EDGE_CURVE ( 'NONE', #123, #123, #120, .T. ) ;
#27 = DIRECTION ( 'NONE',  ( -3.491481338843133355E-15, 0.0000000000000000000, -1.000000000000000000 ) ) ;
#28 = DIRECTION ( 'NONE',  ( -1.000000000000000000, 0.0000000000000000000, 5.782411586589379332E-15 ) ) ;
#29 = PERSON_AND_ORGANIZATION_ROLE ( 'classification_officer' ) ;
#30 = EDGE_LOOP ( 'NONE', ( #108 ) ) ;
#31 = DIRECTION ( 'NONE',  ( -3.491481338843133355E-15, 0.0000000000000000000, -1.000000000000000000 ) ) ;
#32 = CALENDAR_DATE ( 2021, 17, 12 ) ;
#33 = EDGE_LOOP ( 'NONE', ( #214 ) ) ;
#34 = DIRECTION ( 'NONE',  ( 1.000000000000000000, 0.0000000000000000000, -3.505803431989056433E-15 ) ) ;
#35 = ORGANIZATION ( 'UNSPECIFIED', 'UNSPECIFIED', '' ) ;
#36 = AXIS2_PLACEMENT_3D ( 'NONE', #134, #136, #351 ) ;
#37 = VERTEX_POINT ( 'NONE', #174 ) ;
#38 =( NAMED_UNIT ( * ) SI_UNIT ( $, .STERADIAN. ) SOLID_ANGLE_UNIT ( ) );
#39 = FACE_OUTER_BOUND ( 'NONE', #78, .T. ) ;
#40 = EDGE_CURVE ( 'NONE', #306, #306, #99, .T. ) ;
#41 = CC_DESIGN_PERSON_AND_ORGANIZATION_ASSIGNMENT ( #359, #54, ( #74 ) ) ;
#42 = CARTESIAN_POINT ( 'NONE',  ( -0.5590741737109075071, 0.0000000000000000000, 6.458819045102515588 ) ) ;
#43 = APPLICATION_PROTOCOL_DEFINITION ( 'international standard', 'config_control_design', 1994, #111 ) ;
#44 =( LENGTH_UNIT ( ) NAMED_UNIT ( * ) SI_UNIT ( .MILLI., .METRE. ) );
#45 = ADVANCED_FACE ( 'NONE', ( #260, #109 ), #182, .T. ) ;
#46 = VERTEX_POINT ( 'NONE', #10 ) ;
#47 = FACE_OUTER_BOUND ( 'NONE', #261, .T. ) ;
#48 = AXIS2_PLACEMENT_3D ( 'NONE', #113, #84, #218 ) ;
#49 = CARTESIAN_POINT ( 'NONE',  ( 0.0000000000000000000, 0.0000000000000000000, 0.0000000000000000000 ) ) ;
#50 = EDGE_LOOP ( 'NONE', ( #360 ) ) ;
#51 = AXIS2_PLACEMENT_3D ( 'NONE', #329, #27, #192 ) ;
#52 = DIRECTION ( 'NONE',  ( -1.000000000000000000, 0.0000000000000000000, 3.304235192336778667E-15 ) ) ;
#53 = FACE_OUTER_BOUND ( 'NONE', #257, .T. ) ;
#54 = PERSON_AND_ORGANIZATION_ROLE ( 'creator' ) ;
#55 = CALENDAR_DATE ( 2021, 17, 12 ) ;
#56 = FACE_OUTER_BOUND ( 'NONE', #207, .T. ) ;
#57 = DATE_AND_TIME ( #355, #160 ) ;
#58 = FACE_OUTER_BOUND ( 'NONE', #288, .T. ) ;
#59 = AXIS2_PLACEMENT_3D ( 'NONE', #49, #132, #196 ) ;
#60 = EDGE_CURVE ( 'NONE', #37, #37, #124, .T. ) ;
#61 = APPROVAL_DATE_TIME ( #275, #206 ) ;
#62 = EDGE_LOOP ( 'NONE', ( #127 ) ) ;
#63 = DIRECTION ( 'NONE',  ( -1.000000000000000000, 0.0000000000000000000, 3.469446951953624444E-15 ) ) ;
#64 = EDGE_LOOP ( 'NONE', ( #11 ) ) ;
#65 = FACE_OUTER_BOUND ( 'NONE', #6, .T. ) ;
#66 = SECURITY_CLASSIFICATION ( '', '', #294 ) ;
#67 = CARTESIAN_POINT ( 'NONE',  ( 7.980271663002728137E-16, 0.0000000000000000000, 0.2285640646055095426 ) ) ;
#68 = CARTESIAN_POINT ( 'NONE',  ( -0.8349999999999990763, 0.0000000000000000000, 0.2665640646055124074 ) ) ;
#69 = DIRECTION ( 'NONE',  ( -1.000000000000000000, 0.0000000000000000000, 3.491481338843133355E-15 ) ) ;
#70 = CARTESIAN_POINT ( 'NONE',  ( -0.5949999999999985301, 0.0000000000000000000, 0.4051281292110209264 ) ) ;
#71 = EDGE_LOOP ( 'NONE', ( #156 ) ) ;
#72 =( NAMED_UNIT ( * ) PLANE_ANGLE_UNIT ( ) SI_UNIT ( $, .RADIAN. ) );
#73 = DIRECTION ( 'NONE',  ( -3.491481338843133355E-15, 0.0000000000000000000, -1.000000000000000000 ) ) ;
#74 = PRODUCT_DEFINITION_FORMATION_WITH_SPECIFIED_SOURCE ( 'ANY', '', #202, .NOT_KNOWN. ) ;
#75 = DIRECTION ( 'NONE',  ( 3.491481338843133355E-15, 0.0000000000000000000, 1.000000000000000000 ) ) ;
#76 = ADVANCED_FACE ( 'NONE', ( #236 ), #155, .F. ) ;
#77 = CARTESIAN_POINT ( 'NONE',  ( 0.0000000000000000000, 0.0000000000000000000, 0.0000000000000000000 ) ) ;
#78 = EDGE_LOOP ( 'NONE', ( #152 ) ) ;
#79 = DIRECTION ( 'NONE',  ( -3.491481338843133355E-15, 0.0000000000000000000, -1.000000000000000000 ) ) ;
#80 = AXIS2_PLACEMENT_3D ( 'NONE', #339, #343, #91 ) ;
#81 = CARTESIAN_POINT ( 'NONE',  ( 1.414497302980702157E-15, 0.0000000000000000000, 0.4051281292110188725 ) ) ;
#82 = EDGE_LOOP ( 'NONE', ( #293 ) ) ;
#83 = PERSON_AND_ORGANIZATION ( #256, #35 ) ;
#84 = DIRECTION ( 'NONE',  ( -3.491481338843133355E-15, 0.0000000000000000000, -1.000000000000000000 ) ) ;
#85 = COORDINATED_UNIVERSAL_TIME_OFFSET ( 1, 0, .AHEAD. ) ;
#86 = CARTESIAN_POINT ( 'NONE',  ( 7.980271663002728137E-16, 0.0000000000000000000, 0.2285640646055095426 ) ) ;
#87 = AXIS2_PLACEMENT_3D ( 'NONE', #144, #142, #280 ) ;
#88 = PLANE ( 'NONE',  #244 ) ;
#89 = APPROVAL_ROLE ( '' ) ;
#90 = FACE_OUTER_BOUND ( 'NONE', #176, .T. ) ;
#91 = DIRECTION ( 'NONE',  ( -1.000000000000000000, 0.0000000000000000000, 4.625929269271500311E-15 ) ) ;
#92 = AXIS2_PLACEMENT_3D ( 'NONE', #337, #227, #2 ) ;
#93 = AXIS2_PLACEMENT_3D ( 'NONE', #303, #269, #331 ) ;
#94 = CARTESIAN_POINT ( 'NONE',  ( -0.5949999999999980860, 0.0000000000000000000, 0.4951281292110209509 ) ) ;
#95 = EDGE_CURVE ( 'NONE', #172, #172, #106, .T. ) ;
#96 = EDGE_LOOP ( 'NONE', ( #102 ) ) ;
#97 = UNCERTAINTY_MEASURE_WITH_UNIT (LENGTH_MEASURE( 1.000000000000000082E-05 ), #44, 'distance_accuracy_value', 'NONE');
#98 = AXIS2_PLACEMENT_3D ( 'NONE', #277, #219, #357 ) ;
#99 = CIRCLE ( 'NONE', #36, 0.8350000000000000755 ) ;
#100 = MECHANICAL_CONTEXT ( 'NONE', #111, 'mechanical' ) ;
#101 = CARTESIAN_POINT ( 'NONE',  ( 0.0000000000000000000, 0.0000000000000000000, 0.0000000000000000000 ) ) ;
#102 = ORIENTED_EDGE ( 'NONE', *, *, #197, .T. ) ;
#103 = ADVANCED_FACE ( 'NONE', ( #178, #47 ), #317, .T. ) ;
#104 = CC_DESIGN_DATE_AND_TIME_ASSIGNMENT ( #300, #157, ( #230 ) ) ;
#105 = CONICAL_SURFACE ( 'NONE', #290, 1.199999999999995293, 0.7853981633974453924 ) ;
#106 = CIRCLE ( 'NONE', #253, 0.5590741737109300447 ) ;
#107 = DIRECTION ( 'NONE',  ( -1.000000000000000000, 0.0000000000000000000, 3.491481338843132961E-15 ) ) ;
#108 = ORIENTED_EDGE ( 'NONE', *, *, #95, .T. ) ;
#109 = FACE_OUTER_BOUND ( 'NONE', #50, .T. ) ;
#110 = EDGE_LOOP ( 'NONE', ( #166 ) ) ;
#111 = APPLICATION_CONTEXT ( 'configuration controlled 3d designs of mechanical parts and assemblies' ) ;
#112 = PLANE ( 'NONE',  #340 ) ;
#113 = CARTESIAN_POINT ( 'NONE',  ( 2.164718430082742680E-14, 0.0000000000000000000, 6.200000000000000178 ) ) ;
#114 = CARTESIAN_POINT ( 'NONE',  ( 0.0000000000000000000, 0.0000000000000000000, 0.0000000000000000000 ) ) ;
#115 = DIRECTION ( 'NONE',  ( 1.000000000000000000, 0.0000000000000000000, -3.491481338843133355E-15 ) ) ;
#116 = CC_DESIGN_PERSON_AND_ORGANIZATION_ASSIGNMENT ( #328, #29, ( #66 ) ) ;
#117 = DATE_AND_TIME ( #32, #272 ) ;
#118 = EDGE_LOOP ( 'NONE', ( #21 ) ) ;
#119 = PLANE ( 'NONE',  #319 ) ;
#120 = CIRCLE ( 'NONE', #311, 0.5949999999999998623 ) ;
#121 = PERSON_AND_ORGANIZATION ( #256, #35 ) ;
#122 = ORIENTED_EDGE ( 'NONE', *, *, #26, .T. ) ;
#123 = VERTEX_POINT ( 'NONE', #94 ) ;
#124 = CIRCLE ( 'NONE', #231, 0.5249999999999994671 ) ;
#125 = ADVANCED_FACE ( 'NONE', ( #248, #167 ), #213, .T. ) ;
#126 = CC_DESIGN_PERSON_AND_ORGANIZATION_ASSIGNMENT ( #232, #7, ( #202 ) ) ;
#127 = ORIENTED_EDGE ( 'NONE', *, *, #242, .F. ) ;
#128 = DIRECTION ( 'NONE',  ( -3.491481338843133355E-15, 0.0000000000000000000, -1.000000000000000000 ) ) ;
#129 = VERTEX_POINT ( 'NONE', #338 ) ;
#130 =( GEOMETRIC_REPRESENTATION_CONTEXT ( 3 ) GLOBAL_UNCERTAINTY_ASSIGNED_CONTEXT ( ( #97 ) ) GLOBAL_UNIT_ASSIGNED_CONTEXT ( ( #44, #72, #38 ) ) REPRESENTATION_CONTEXT ( 'NONE', 'WORKASPACE' ) );
#131 = ORIENTED_EDGE ( 'NONE', *, *, #336, .F. ) ;
#132 = DIRECTION ( 'NONE',  ( -3.491481338843133355E-15, 0.0000000000000000000, -1.000000000000000000 ) ) ;
#133 = EDGE_LOOP ( 'NONE', ( #348 ) ) ;
#134 = CARTESIAN_POINT ( 'NONE',  ( 9.307034571763117195E-16, 0.0000000000000000000, 0.2665640646055094654 ) ) ;
#135 = CARTESIAN_POINT ( 'NONE',  ( 1.414497302980702157E-15, 0.0000000000000000000, 0.4051281292110188725 ) ) ;
#136 = DIRECTION ( 'NONE',  ( -3.491481338843133355E-15, 0.0000000000000000000, -1.000000000000000000 ) ) ;
#137 = ORIENTED_EDGE ( 'NONE', *, *, #289, .F. ) ;
#138 = DIRECTION ( 'NONE',  ( -3.491481338843133355E-15, 0.0000000000000000000, -1.000000000000000000 ) ) ;
#139 = CIRCLE ( 'NONE', #299, 0.5249999999999994671 ) ;
#140 = CARTESIAN_POINT ( 'NONE',  ( 1.326762908760390423E-13, 0.0000000000000000000, 38.00000000000000000 ) ) ;
#141 = MANIFOLD_SOLID_BREP ( 'Corps-Déplacer/Copier1[1]', #341 ) ;
#142 = DIRECTION ( 'NONE',  ( 3.491481338843133355E-15, 0.0000000000000000000, 1.000000000000000000 ) ) ;
#143 = DATE_TIME_ROLE ( 'classification_date' ) ;
#144 = CARTESIAN_POINT ( 'NONE',  ( 3.481147264585133351E-14, 0.0000000000000000000, 9.970402034967129623 ) ) ;
#145 = COORDINATED_UNIVERSAL_TIME_OFFSET ( 1, 0, .AHEAD. ) ;
#146 = AXIS2_PLACEMENT_3D ( 'NONE', #67, #282, #204 ) ;
#147 = APPLICATION_CONTEXT ( 'configuration controlled 3d designs of mechanical parts and assemblies' ) ;
#148 = CIRCLE ( 'NONE', #92, 0.5949999999999999734 ) ;
#149 = VERTEX_POINT ( 'NONE', #233 ) ;
#150 = ADVANCED_FACE ( 'NONE', ( #23 ), #119, .T. ) ;
#151 = CARTESIAN_POINT ( 'NONE',  ( 2.255084616694005263E-14, 0.0000000000000000000, 6.458819045102513812 ) ) ;
#152 = ORIENTED_EDGE ( 'NONE', *, *, #316, .T. ) ;
#153 = FACE_BOUND ( 'NONE', #96, .T. ) ;
#154 = CC_DESIGN_SECURITY_CLASSIFICATION ( #66, ( #74 ) ) ;
#155 = PLANE ( 'NONE',  #4 ) ;
#156 = ORIENTED_EDGE ( 'NONE', *, *, #242, .T. ) ;
#157 = DATE_TIME_ROLE ( 'creation_date' ) ;
#158 = DIRECTION ( 'NONE',  ( 1.000000000000000000, 0.0000000000000000000, -3.491481338843133355E-15 ) ) ;
#159 = EDGE_CURVE ( 'NONE', #5, #5, #258, .T. ) ;
#160 = LOCAL_TIME ( 8, 11, 14.00000000000000000, #194 ) ;
#161 = APPROVAL_DATE_TIME ( #57, #215 ) ;
#162 = CC_DESIGN_PERSON_AND_ORGANIZATION_ASSIGNMENT ( #83, #191, ( #230 ) ) ;
#163 = AXIS2_PLACEMENT_3D ( 'NONE', #77, #14, #107 ) ;
#164 = CARTESIAN_POINT ( 'NONE',  ( 1.326762908760390423E-13, 0.0000000000000000000, 38.00000000000000000 ) ) ;
#165 = PERSON_AND_ORGANIZATION_ROLE ( 'design_supplier' ) ;
#166 = ORIENTED_EDGE ( 'NONE', *, *, #159, .F. ) ;
#167 = FACE_OUTER_BOUND ( 'NONE', #71, .T. ) ;
#168 = PERSON_AND_ORGANIZATION ( #256, #35 ) ;
#169 = ADVANCED_FACE ( 'NONE', ( #335 ), #112, .F. ) ;
#170 = AXIS2_PLACEMENT_3D ( 'NONE', #101, #183, #315 ) ;
#171 = APPROVAL_STATUS ( 'not_yet_approved' ) ;
#172 = VERTEX_POINT ( 'NONE', #42 ) ;
#173 = CC_DESIGN_APPROVAL ( #206, ( #230 ) ) ;
#174 = CARTESIAN_POINT ( 'NONE',  ( -0.5249999999999777067, 0.0000000000000000000, 6.200000000000001954 ) ) ;
#175 = CLOSED_SHELL ( 'NONE', ( #169, #19, #220, #45, #9, #193, #150 ) ) ;
#176 = EDGE_LOOP ( 'NONE', ( #302 ) ) ;
#177 = DESIGN_CONTEXT ( 'detailed design', #147, 'design' ) ;
#178 = FACE_OUTER_BOUND ( 'NONE', #33, .T. ) ;
#179 = ORIENTED_EDGE ( 'NONE', *, *, #60, .F. ) ;
#180 = EDGE_LOOP ( 'NONE', ( #322 ) ) ;
#181 = AXIS2_PLACEMENT_3D ( 'NONE', #324, #79, #186 ) ;
#182 = CYLINDRICAL_SURFACE ( 'NONE', #163, 0.8350000000000000755 ) ;
#183 = DIRECTION ( 'NONE',  ( -3.491481338843133355E-15, 0.0000000000000000000, -1.000000000000000000 ) ) ;
#184 = EDGE_LOOP ( 'NONE', ( #122 ) ) ;
#185 = DIRECTION ( 'NONE',  ( -1.000000000000000000, 0.0000000000000000000, 3.462158197852872240E-15 ) ) ;
#186 = DIRECTION ( 'NONE',  ( -1.000000000000000000, 0.0000000000000000000, 3.462158197852872240E-15 ) ) ;
#187 = AXIS2_PLACEMENT_3D ( 'NONE', #285, #210, #345 ) ;
#188 = PERSON_AND_ORGANIZATION ( #256, #35 ) ;
#189 = DIRECTION ( 'NONE',  ( -3.491481338843133355E-15, 0.0000000000000000000, -1.000000000000000000 ) ) ;
#190 = ORIENTED_EDGE ( 'NONE', *, *, #15, .T. ) ;
#191 = PERSON_AND_ORGANIZATION_ROLE ( 'creator' ) ;
#192 = DIRECTION ( 'NONE',  ( -1.000000000000000000, 0.0000000000000000000, 3.484935554417693443E-15 ) ) ;
#193 = ADVANCED_FACE ( 'NONE', ( #245, #56 ), #216, .T. ) ;
#194 = COORDINATED_UNIVERSAL_TIME_OFFSET ( 1, 0, .AHEAD. ) ;
#195 = COORDINATED_UNIVERSAL_TIME_OFFSET ( 1, 0, .AHEAD. ) ;
#196 = DIRECTION ( 'NONE',  ( -1.000000000000000000, 0.0000000000000000000, 3.491481338843132961E-15 ) ) ;
#197 = EDGE_CURVE ( 'NONE', #254, #254, #237, .T. ) ;
#198 = COORDINATED_UNIVERSAL_TIME_OFFSET ( 1, 0, .AHEAD. ) ;
#199 = EDGE_LOOP ( 'NONE', ( #225 ) ) ;
#200 = CARTESIAN_POINT ( 'NONE',  ( 1.728730623476584237E-15, -9.022167955449918096E-17, 0.4951281292110188970 ) ) ;
#201 = ADVANCED_BREP_SHAPE_REPRESENTATION ( '378086', ( #141, #16, #187 ), #130 ) ;
#202 = PRODUCT ( '378086', '378086', '', ( #100 ) ) ;
#203 = EDGE_LOOP ( 'NONE', ( #137 ) ) ;
#204 = DIRECTION ( 'NONE',  ( -1.000000000000000000, 0.0000000000000000000, 3.505803431989056433E-15 ) ) ;
#205 = CONICAL_SURFACE ( 'NONE', #212, 0.8349999999999999645, 1.047197551196600074 ) ;
#206 = APPROVAL ( #171, 'UNSPECIFIED' ) ;
#207 = EDGE_LOOP ( 'NONE', ( #190 ) ) ;
#208 = APPLICATION_PROTOCOL_DEFINITION ( 'international standard', 'config_control_design', 1994, #147 ) ;
#209 = CIRCLE ( 'NONE', #251, 1.499999999999995559 ) ;
#210 = DIRECTION ( 'NONE',  ( 0.0000000000000000000, 0.0000000000000000000, 1.000000000000000000 ) ) ;
#211 = DIRECTION ( 'NONE',  ( -3.491481338843133355E-15, 0.0000000000000000000, -1.000000000000000000 ) ) ;
#212 = AXIS2_PLACEMENT_3D ( 'NONE', #86, #271, #34 ) ;
#213 = CONICAL_SURFACE ( 'NONE', #87, 1.499999999999995559, 0.2617993877991425800 ) ;
#214 = ORIENTED_EDGE ( 'NONE', *, *, #316, .F. ) ;
#215 = APPROVAL ( #330, 'UNSPECIFIED' ) ;
#216 = CYLINDRICAL_SURFACE ( 'NONE', #93, 0.5949999999999998623 ) ;
#217 = ORIENTED_EDGE ( 'NONE', *, *, #350, .T. ) ;
#218 = DIRECTION ( 'NONE',  ( -1.000000000000000000, 0.0000000000000000000, 3.491481338843133750E-15 ) ) ;
#219 = DIRECTION ( 'NONE',  ( -3.491481338843133355E-15, 0.0000000000000000000, -1.000000000000000000 ) ) ;
#220 = ADVANCED_FACE ( 'NONE', ( #332, #65 ), #205, .T. ) ;
#221 = DIRECTION ( 'NONE',  ( -1.000000000000000000, 0.0000000000000000000, 3.462158197852871451E-15 ) ) ;
#222 = DIRECTION ( 'NONE',  ( 3.491481338843133355E-15, 0.0000000000000000000, 1.000000000000000000 ) ) ;
#223 = CARTESIAN_POINT ( 'NONE',  ( -1.199999999999862732, 0.0000000000000000000, 38.00000000000000711 ) ) ;
#224 = APPROVAL_ROLE ( '' ) ;
#225 = ORIENTED_EDGE ( 'NONE', *, *, #350, .F. ) ;
#226 = DIRECTION ( 'NONE',  ( -3.491481338843133355E-15, 0.0000000000000000000, -1.000000000000000000 ) ) ;
#227 = DIRECTION ( 'NONE',  ( -3.491481338843133355E-15, 0.0000000000000000000, -1.000000000000000000 ) ) ;
#228 = LOCAL_TIME ( 8, 11, 14.00000000000000000, #195 ) ;
#229 = CARTESIAN_POINT ( 'NONE',  ( 2.619571670050434422E-15, 0.0000000000000000000, 0.7502751456544809461 ) ) ;
#230 = PRODUCT_DEFINITION ( 'UNKNOWN', '', #74, #177 ) ;
#231 = AXIS2_PLACEMENT_3D ( 'NONE', #291, #211, #52 ) ;
#232 = PERSON_AND_ORGANIZATION ( #256, #35 ) ;
#233 = CARTESIAN_POINT ( 'NONE',  ( -0.5949999999999980860, 0.0000000000000000000, 0.4951281292110209509 ) ) ;
#234 = CARTESIAN_POINT ( 'NONE',  ( -0.5949999999999999734, 0.0000000000000000000, 2.077431396611664189E-15 ) ) ;
#235 = LOCAL_TIME ( 8, 11, 14.00000000000000000, #85 ) ;
#236 = FACE_OUTER_BOUND ( 'NONE', #184, .T. ) ;
#237 = CIRCLE ( 'NONE', #305, 0.5949999999999999734 ) ;
#238 = ADVANCED_FACE ( 'NONE', ( #326 ), #88, .F. ) ;
#239 = ORIENTED_EDGE ( 'NONE', *, *, #60, .T. ) ;
#240 = DIRECTION ( 'NONE',  ( -3.491481338843133355E-15, 0.0000000000000000000, -1.000000000000000000 ) ) ;
#241 = CARTESIAN_POINT ( 'NONE',  ( 0.0000000000000000000, 0.0000000000000000000, 0.0000000000000000000 ) ) ;
#242 = EDGE_CURVE ( 'NONE', #313, #313, #209, .T. ) ;
#243 = FACE_OUTER_BOUND ( 'NONE', #30, .T. ) ;
#244 = AXIS2_PLACEMENT_3D ( 'NONE', #140, #189, #298 ) ;
#245 = FACE_OUTER_BOUND ( 'NONE', #276, .T. ) ;
#246 = CALENDAR_DATE ( 2021, 17, 12 ) ;
#247 = ORIENTED_EDGE ( 'NONE', *, *, #321, .F. ) ;
#248 = FACE_BOUND ( 'NONE', #13, .T. ) ;
#249 = APPROVAL_ROLE ( '' ) ;
#250 = CARTESIAN_POINT ( 'NONE',  ( -1.499999999999960476, 0.0000000000000000000, 9.970402034967134952 ) ) ;
#251 = AXIS2_PLACEMENT_3D ( 'NONE', #301, #138, #63 ) ;
#252 = CARTESIAN_POINT ( 'NONE',  ( -1.499999999999863665, 0.0000000000000000000, 37.70000000000000284 ) ) ;
#253 = AXIS2_PLACEMENT_3D ( 'NONE', #151, #287, #353 ) ;
#254 = VERTEX_POINT ( 'NONE', #70 ) ;
#255 = APPROVAL ( #278, 'UNSPECIFIED' ) ;
#256 = PERSON ( 'UNSPECIFIED', 'UNSPECIFIED', 'UNSPECIFIED', ('UNSPECIFIED'), ('UNSPECIFIED'), ('UNSPECIFIED') ) ;
#257 = EDGE_LOOP ( 'NONE', ( #247 ) ) ;
#258 = CIRCLE ( 'NONE', #98, 1.199999999999995293 ) ;
#259 = CARTESIAN_POINT ( 'NONE',  ( 1.728730623476584237E-15, -9.022167955449918096E-17, 0.4951281292110188970 ) ) ;
#260 = FACE_OUTER_BOUND ( 'NONE', #199, .T. ) ;
#261 = EDGE_LOOP ( 'NONE', ( #239 ) ) ;
#262 = AXIS2_PLACEMENT_3D ( 'NONE', #229, #128, #69 ) ;
#263 = FACE_OUTER_BOUND ( 'NONE', #62, .T. ) ;
#264 = ORIENTED_EDGE ( 'NONE', *, *, #95, .F. ) ;
#265 = CIRCLE ( 'NONE', #181, 0.5949999999999998623 ) ;
#266 = DIRECTION ( 'NONE',  ( 1.000000000000000000, 0.0000000000000000000, -3.491481338843133355E-15 ) ) ;
#267 = CYLINDRICAL_SURFACE ( 'NONE', #346, 0.5949999999999998623 ) ;
#268 = PRODUCT_RELATED_PRODUCT_CATEGORY ( 'detail', '', ( #202 ) ) ;
#269 = DIRECTION ( 'NONE',  ( -3.491481338843133355E-15, 0.0000000000000000000, -1.000000000000000000 ) ) ;
#270 = APPROVAL_DATE_TIME ( #117, #255 ) ;
#271 = DIRECTION ( 'NONE',  ( 3.491481338843133355E-15, 0.0000000000000000000, 1.000000000000000000 ) ) ;
#272 = LOCAL_TIME ( 8, 11, 14.00000000000000000, #198 ) ;
#273 = PRODUCT_DEFINITION_SHAPE ( 'NONE', 'NONE',  #230 ) ;
#274 = DIRECTION ( 'NONE',  ( -3.491481338843133355E-15, 0.0000000000000000000, -1.000000000000000000 ) ) ;
#275 = DATE_AND_TIME ( #55, #228 ) ;
#276 = EDGE_LOOP ( 'NONE', ( #279 ) ) ;
#277 = CARTESIAN_POINT ( 'NONE',  ( 1.326762908760390423E-13, 0.0000000000000000000, 38.00000000000000000 ) ) ;
#278 = APPROVAL_STATUS ( 'not_yet_approved' ) ;
#279 = ORIENTED_EDGE ( 'NONE', *, *, #197, .F. ) ;
#280 = DIRECTION ( 'NONE',  ( 1.000000000000000000, 0.0000000000000000000, -3.469446951953624444E-15 ) ) ;
#281 = APPROVAL_PERSON_ORGANIZATION ( #168, #255, #89 ) ;
#282 = DIRECTION ( 'NONE',  ( -3.491481338843133355E-15, 0.0000000000000000000, -1.000000000000000000 ) ) ;
#283 = ADVANCED_FACE ( 'NONE', ( #292, #243 ), #349, .F. ) ;
#284 = CIRCLE ( 'NONE', #146, 0.8349999999999999645 ) ;
#285 = CARTESIAN_POINT ( 'NONE',  ( 0.0000000000000000000, 0.0000000000000000000, 0.0000000000000000000 ) ) ;
#286 = VERTEX_POINT ( 'NONE', #234 ) ;
#287 = DIRECTION ( 'NONE',  ( -3.491481338843133355E-15, 0.0000000000000000000, -1.000000000000000000 ) ) ;
#288 = EDGE_LOOP ( 'NONE', ( #131 ) ) ;
#289 = EDGE_CURVE ( 'NONE', #46, #46, #3, .T. ) ;
#290 = AXIS2_PLACEMENT_3D ( 'NONE', #164, #274, #28 ) ;
#291 = CARTESIAN_POINT ( 'NONE',  ( 2.164718430082742680E-14, 0.0000000000000000000, 6.200000000000000178 ) ) ;
#292 = FACE_OUTER_BOUND ( 'NONE', #304, .T. ) ;
#293 = ORIENTED_EDGE ( 'NONE', *, *, #336, .T. ) ;
#294 = SECURITY_CLASSIFICATION_LEVEL ( 'unclassified' ) ;
#295 = DIRECTION ( 'NONE',  ( -1.000000000000000000, 0.0000000000000000000, 3.491481338843133355E-15 ) ) ;
#296 = SHAPE_DEFINITION_REPRESENTATION ( #273, #201 ) ;
#297 = CALENDAR_DATE ( 2021, 17, 12 ) ;
#298 = DIRECTION ( 'NONE',  ( -1.000000000000000000, 0.0000000000000000000, 3.491481338843133355E-15 ) ) ;
#299 = AXIS2_PLACEMENT_3D ( 'NONE', #1, #226, #309 ) ;
#300 = DATE_AND_TIME ( #297, #235 ) ;
#301 = CARTESIAN_POINT ( 'NONE',  ( 3.481147264585133351E-14, 0.0000000000000000000, 9.970402034967129623 ) ) ;
#302 = ORIENTED_EDGE ( 'NONE', *, *, #40, .F. ) ;
#303 = CARTESIAN_POINT ( 'NONE',  ( 0.0000000000000000000, 0.0000000000000000000, 0.0000000000000000000 ) ) ;
#304 = EDGE_LOOP ( 'NONE', ( #179 ) ) ;
#305 = AXIS2_PLACEMENT_3D ( 'NONE', #81, #31, #221 ) ;
#306 = VERTEX_POINT ( 'NONE', #68 ) ;
#307 = ADVANCED_FACE ( 'NONE', ( #58, #358 ), #105, .T. ) ;
#308 = CARTESIAN_POINT ( 'NONE',  ( -0.8349999999999991873, 0.0000000000000000000, 0.2285640646055124570 ) ) ;
#309 = DIRECTION ( 'NONE',  ( -1.000000000000000000, 0.0000000000000000000, 3.510749891857827507E-15 ) ) ;
#310 = CC_DESIGN_APPROVAL ( #215, ( #66 ) ) ;
#311 = AXIS2_PLACEMENT_3D ( 'NONE', #347, #73, #185 ) ;
#312 = FACE_OUTER_BOUND ( 'NONE', #180, .T. ) ;
#313 = VERTEX_POINT ( 'NONE', #250 ) ;
#314 = PERSON_AND_ORGANIZATION ( #256, #35 ) ;
#315 = DIRECTION ( 'NONE',  ( -1.000000000000000000, 0.0000000000000000000, 3.491481338843133355E-15 ) ) ;
#316 = EDGE_CURVE ( 'NONE', #129, #129, #139, .T. ) ;
#317 = CYLINDRICAL_SURFACE ( 'NONE', #59, 0.5249999999999994671 ) ;
#318 = APPROVAL_PERSON_ORGANIZATION ( #121, #215, #224 ) ;
#319 = AXIS2_PLACEMENT_3D ( 'NONE', #200, #362, #115 ) ;
#320 = CYLINDRICAL_SURFACE ( 'NONE', #170, 1.499999999999995337 ) ;
#321 = EDGE_CURVE ( 'NONE', #286, #286, #148, .T. ) ;
#322 = ORIENTED_EDGE ( 'NONE', *, *, #26, .F. ) ;
#323 = CC_DESIGN_PERSON_AND_ORGANIZATION_ASSIGNMENT ( #188, #165, ( #74 ) ) ;
#324 = CARTESIAN_POINT ( 'NONE',  ( 1.728730623476584237E-15, 0.0000000000000000000, 0.4951281292110188970 ) ) ;
#325 = CC_DESIGN_APPROVAL ( #255, ( #74 ) ) ;
#326 = FACE_OUTER_BOUND ( 'NONE', #110, .T. ) ;
#327 = ORIENTED_EDGE ( 'NONE', *, *, #289, .T. ) ;
#328 = PERSON_AND_ORGANIZATION ( #256, #35 ) ;
#329 = CARTESIAN_POINT ( 'NONE',  ( 3.142333204958820809E-16, 0.0000000000000000000, 0.09000000000000002442 ) ) ;
#330 = APPROVAL_STATUS ( 'not_yet_approved' ) ;
#331 = DIRECTION ( 'NONE',  ( -1.000000000000000000, 0.0000000000000000000, 3.491481338843133355E-15 ) ) ;
#332 = FACE_BOUND ( 'NONE', #203, .T. ) ;
#333 = CIRCLE ( 'NONE', #80, 1.499999999999995337 ) ;
#334 = EDGE_LOOP ( 'NONE', ( #327 ) ) ;
#335 = FACE_OUTER_BOUND ( 'NONE', #118, .T. ) ;
#336 = EDGE_CURVE ( 'NONE', #8, #8, #333, .T. ) ;
#337 = CARTESIAN_POINT ( 'NONE',  ( 0.0000000000000000000, 0.0000000000000000000, 0.0000000000000000000 ) ) ;
#338 = CARTESIAN_POINT ( 'NONE',  ( -0.5249999999999968026, 0.0000000000000000000, 0.7502751456544828335 ) ) ;
#339 = CARTESIAN_POINT ( 'NONE',  ( 1.316288464743861212E-13, 0.0000000000000000000, 37.69999999999999574 ) ) ;
#340 = AXIS2_PLACEMENT_3D ( 'NONE', #114, #222, #158 ) ;
#341 = CLOSED_SHELL ( 'NONE', ( #76, #361, #103, #283, #125, #24, #307, #238 ) ) ;
#342 = VERTEX_POINT ( 'NONE', #308 ) ;
#343 = DIRECTION ( 'NONE',  ( -3.491481338843133355E-15, 0.0000000000000000000, -1.000000000000000000 ) ) ;
#344 = CC_DESIGN_DATE_AND_TIME_ASSIGNMENT ( #25, #143, ( #66 ) ) ;
#345 = DIRECTION ( 'NONE',  ( 1.000000000000000000, 0.0000000000000000000, 0.0000000000000000000 ) ) ;
#346 = AXIS2_PLACEMENT_3D ( 'NONE', #241, #354, #295 ) ;
#347 = CARTESIAN_POINT ( 'NONE',  ( 1.728730623476584237E-15, 0.0000000000000000000, 0.4951281292110188970 ) ) ;
#348 = ORIENTED_EDGE ( 'NONE', *, *, #159, .T. ) ;
#349 = TOROIDAL_SURFACE ( 'NONE', #48, 1.524999999999999467, 0.9999999999999997780 ) ;
#350 = EDGE_CURVE ( 'NONE', #342, #342, #284, .T. ) ;
#351 = DIRECTION ( 'NONE',  ( -1.000000000000000000, 0.0000000000000000000, 3.505803431989056039E-15 ) ) ;
#352 = DIRECTION ( 'NONE',  ( -1.000000000000000000, 0.0000000000000000000, 3.462158197852871451E-15 ) ) ;
#353 = DIRECTION ( 'NONE',  ( -1.000000000000000000, 0.0000000000000000000, 3.102850314945415424E-15 ) ) ;
#354 = DIRECTION ( 'NONE',  ( -3.491481338843133355E-15, 0.0000000000000000000, -1.000000000000000000 ) ) ;
#355 = CALENDAR_DATE ( 2021, 17, 12 ) ;
#356 = AXIS2_PLACEMENT_3D ( 'NONE', #135, #240, #352 ) ;
#357 = DIRECTION ( 'NONE',  ( -1.000000000000000000, 0.0000000000000000000, 5.782411586589379332E-15 ) ) ;
#358 = FACE_BOUND ( 'NONE', #133, .T. ) ;
#359 = PERSON_AND_ORGANIZATION ( #256, #35 ) ;
#360 = ORIENTED_EDGE ( 'NONE', *, *, #40, .T. ) ;
#361 = ADVANCED_FACE ( 'NONE', ( #312, #39 ), #12, .F. ) ;
#362 = DIRECTION ( 'NONE',  ( 3.491481338843133355E-15, 0.0000000000000000000, 1.000000000000000000 ) ) ;
#363 = APPROVAL_PERSON_ORGANIZATION ( #314, #206, #249 ) ;
ENDSEC;
END-ISO-10303-21;
