ISO-10303-21;
HEADER;
FILE_DESCRIPTION (( 'STEP AP203' ),
    '1' );
FILE_NAME ('378085.step',
    '2021-12-17T07:11:13',
    ( '' ),
    ( '' ),
    'SwSTEP 2.0',
    'SolidWorks 2019',
    '' );
FILE_SCHEMA (( 'CONFIG_CONTROL_DESIGN' ));
ENDSEC;

DATA;
#1 = EDGE_LOOP ( 'NONE', ( #64 ) ) ;
#2 = ORIENTED_EDGE ( 'NONE', *, *, #237, .F. ) ;
#3 = FACE_OUTER_BOUND ( 'NONE', #314, .T. ) ;
#4 = DIRECTION ( 'NONE',  ( 1.000000000000000000, 0.0000000000000000000, 0.0000000000000000000 ) ) ;
#5 = MANIFOLD_SOLID_BREP ( 'Corps-Déplacer/Copier1[2]', #90 ) ;
#6 = CARTESIAN_POINT ( 'NONE',  ( -1.199999999999862732, 0.0000000000000000000, 38.00000000000000711 ) ) ;
#7 = EDGE_LOOP ( 'NONE', ( #342 ) ) ;
#8 = CARTESIAN_POINT ( 'NONE',  ( 1.257303082973770509E-15, 0.0000000000000000000, 0.3601059152131584895 ) ) ;
#9 = CARTESIAN_POINT ( 'NONE',  ( -0.5510000000000000453, 0.0000000000000000000, 1.923806217702566747E-15 ) ) ;
#10 = ADVANCED_FACE ( 'NONE', ( #86 ), #204, .F. ) ;
#11 = DIRECTION ( 'NONE',  ( -1.000000000000000000, 0.0000000000000000000, 5.782411586589379332E-15 ) ) ;
#12 = CIRCLE ( 'NONE', #223, 0.5509999999999999343 ) ;
#13 = PLANE ( 'NONE',  #269 ) ;
#14 = CALENDAR_DATE ( 2021, 17, 12 ) ;
#15 = EDGE_CURVE ( 'NONE', #147, #147, #352, .T. ) ;
#16 = PERSON_AND_ORGANIZATION ( #186, #105 ) ;
#17 = CALENDAR_DATE ( 2021, 17, 12 ) ;
#18 = AXIS2_PLACEMENT_3D ( 'NONE', #268, #323, #216 ) ;
#19 = DIRECTION ( 'NONE',  ( -3.491481338843133355E-15, 0.0000000000000000000, -1.000000000000000000 ) ) ;
#20 = PERSON_AND_ORGANIZATION_ROLE ( 'classification_officer' ) ;
#21 = DIRECTION ( 'NONE',  ( -3.491481338843133355E-15, 0.0000000000000000000, -1.000000000000000000 ) ) ;
#22 = ADVANCED_FACE ( 'NONE', ( #337, #328 ), #180, .T. ) ;
#23 = CIRCLE ( 'NONE', #73, 1.499999999999995337 ) ;
#24 = AXIS2_PLACEMENT_3D ( 'NONE', #258, #76, #192 ) ;
#25 = ORIENTED_EDGE ( 'NONE', *, *, #316, .F. ) ;
#26 = ADVANCED_FACE ( 'NONE', ( #332 ), #253, .T. ) ;
#27 = DIRECTION ( 'NONE',  ( -3.491481338843133355E-15, 0.0000000000000000000, -1.000000000000000000 ) ) ;
#28 = ORIENTED_EDGE ( 'NONE', *, *, #222, .T. ) ;
#29 = DIRECTION ( 'NONE',  ( -1.000000000000000000, 0.0000000000000000000, 3.491481338843133750E-15 ) ) ;
#30 = ORIENTED_EDGE ( 'NONE', *, *, #292, .T. ) ;
#31 = DIRECTION ( 'NONE',  ( -3.491481338843133355E-15, 0.0000000000000000000, -1.000000000000000000 ) ) ;
#32 = AXIS2_PLACEMENT_3D ( 'NONE', #260, #285, #11 ) ;
#33 = CARTESIAN_POINT ( 'NONE',  ( 0.0000000000000000000, 0.0000000000000000000, 0.0000000000000000000 ) ) ;
#34 = ORIENTED_EDGE ( 'NONE', *, *, #294, .F. ) ;
#35 = DIRECTION ( 'NONE',  ( 0.0000000000000000000, 0.0000000000000000000, 1.000000000000000000 ) ) ;
#36 = ORIENTED_EDGE ( 'NONE', *, *, #294, .T. ) ;
#37 = ADVANCED_FACE ( 'NONE', ( #303, #118 ), #205, .T. ) ;
#38 = DIRECTION ( 'NONE',  ( 3.491481338843133355E-15, 0.0000000000000000000, 1.000000000000000000 ) ) ;
#39 = CC_DESIGN_PERSON_AND_ORGANIZATION_ASSIGNMENT ( #195, #20, ( #295 ) ) ;
#40 = ORIENTED_EDGE ( 'NONE', *, *, #354, .T. ) ;
#41 = DIRECTION ( 'NONE',  ( 1.000000000000000000, 0.0000000000000000000, -3.491481338843133355E-15 ) ) ;
#42 = CIRCLE ( 'NONE', #181, 0.5510000000000000453 ) ;
#43 = DIRECTION ( 'NONE',  ( -1.000000000000000000, 0.0000000000000000000, 3.491481338843133750E-15 ) ) ;
#44 = DIRECTION ( 'NONE',  ( -3.491481338843133355E-15, 0.0000000000000000000, -1.000000000000000000 ) ) ;
#45 = FACE_OUTER_BOUND ( 'NONE', #360, .T. ) ;
#46 = DIRECTION ( 'NONE',  ( 1.000000000000000000, 0.0000000000000000000, -3.491481338843133355E-15 ) ) ;
#47 = DATE_TIME_ROLE ( 'creation_date' ) ;
#48 = LOCAL_TIME ( 8, 11, 13.00000000000000000, #293 ) ;
#49 = PERSON_AND_ORGANIZATION ( #186, #105 ) ;
#50 = FACE_OUTER_BOUND ( 'NONE', #1, .T. ) ;
#51 = PERSON_AND_ORGANIZATION_ROLE ( 'design_owner' ) ;
#52 =( GEOMETRIC_REPRESENTATION_CONTEXT ( 3 ) GLOBAL_UNCERTAINTY_ASSIGNED_CONTEXT ( ( #310 ) ) GLOBAL_UNIT_ASSIGNED_CONTEXT ( ( #176, #234, #279 ) ) REPRESENTATION_CONTEXT ( 'NONE', 'WORKASPACE' ) );
#53 = FACE_BOUND ( 'NONE', #236, .T. ) ;
#54 = ADVANCED_BREP_SHAPE_REPRESENTATION ( '378085', ( #131, #5, #221 ), #52 ) ;
#55 = ORIENTED_EDGE ( 'NONE', *, *, #56, .F. ) ;
#56 = EDGE_CURVE ( 'NONE', #125, #125, #23, .T. ) ;
#57 = CYLINDRICAL_SURFACE ( 'NONE', #235, 0.7650000000000000133 ) ;
#58 = EDGE_LOOP ( 'NONE', ( #340 ) ) ;
#59 = DIRECTION ( 'NONE',  ( 3.491481338843133355E-15, 0.0000000000000000000, 1.000000000000000000 ) ) ;
#60 = CARTESIAN_POINT ( 'NONE',  ( 1.326762908760390423E-13, 0.0000000000000000000, 38.00000000000000000 ) ) ;
#61 = CARTESIAN_POINT ( 'NONE',  ( 0.0000000000000000000, 0.0000000000000000000, 0.0000000000000000000 ) ) ;
#62 = APPROVAL_PERSON_ORGANIZATION ( #164, #264, #217 ) ;
#63 = AXIS2_PLACEMENT_3D ( 'NONE', #248, #291, #136 ) ;
#64 = ORIENTED_EDGE ( 'NONE', *, *, #15, .F. ) ;
#65 = EDGE_LOOP ( 'NONE', ( #230 ) ) ;
#66 = DIRECTION ( 'NONE',  ( -3.491481338843133355E-15, 0.0000000000000000000, -1.000000000000000000 ) ) ;
#67 = EDGE_LOOP ( 'NONE', ( #241 ) ) ;
#68 = FACE_OUTER_BOUND ( 'NONE', #177, .T. ) ;
#69 = AXIS2_PLACEMENT_3D ( 'NONE', #265, #194, #247 ) ;
#70 = ADVANCED_FACE ( 'NONE', ( #3 ), #13, .F. ) ;
#71 = COORDINATED_UNIVERSAL_TIME_OFFSET ( 1, 0, .AHEAD. ) ;
#72 = CALENDAR_DATE ( 2021, 17, 12 ) ;
#73 = AXIS2_PLACEMENT_3D ( 'NONE', #202, #281, #146 ) ;
#74 = APPROVAL_DATE_TIME ( #357, #326 ) ;
#75 = AXIS2_PLACEMENT_3D ( 'NONE', #308, #183, #122 ) ;
#76 = DIRECTION ( 'NONE',  ( 3.491481338843133355E-15, 0.0000000000000000000, 1.000000000000000000 ) ) ;
#77 = APPROVAL_STATUS ( 'not_yet_approved' ) ;
#78 = DIRECTION ( 'NONE',  ( -3.491481338843133355E-15, 0.0000000000000000000, -1.000000000000000000 ) ) ;
#79 = FACE_OUTER_BOUND ( 'NONE', #128, .T. ) ;
#80 = ADVANCED_FACE ( 'NONE', ( #189, #130 ), #245, .T. ) ;
#81 = ORIENTED_EDGE ( 'NONE', *, *, #292, .F. ) ;
#82 = CARTESIAN_POINT ( 'NONE',  ( 2.045595736363417261E-14, 0.0000000000000000000, 5.858819045102514167 ) ) ;
#83 = EDGE_LOOP ( 'NONE', ( #55 ) ) ;
#84 = ORIENTED_EDGE ( 'NONE', *, *, #102, .F. ) ;
#85 = DIRECTION ( 'NONE',  ( -1.000000000000000000, 0.0000000000000000000, 5.782411586589379332E-15 ) ) ;
#86 = FACE_OUTER_BOUND ( 'NONE', #197, .T. ) ;
#87 = VERTEX_POINT ( 'NONE', #9 ) ;
#88 = CC_DESIGN_SECURITY_CLASSIFICATION ( #295, ( #266 ) ) ;
#89 = CC_DESIGN_APPROVAL ( #326, ( #295 ) ) ;
#90 = CLOSED_SHELL ( 'NONE', ( #70, #362, #22, #167, #155, #37, #26 ) ) ;
#91 = CARTESIAN_POINT ( 'NONE',  ( -0.4899999999999969380, 0.0000000000000000000, 0.6794362308858736821 ) ) ;
#92 = CARTESIAN_POINT ( 'NONE',  ( 1.326762908760390423E-13, 0.0000000000000000000, 38.00000000000000000 ) ) ;
#93 = CARTESIAN_POINT ( 'NONE',  ( 1.536621590081221138E-15, 0.0000000000000000000, 0.4401059152131585051 ) ) ;
#94 = VERTEX_POINT ( 'NONE', #178 ) ;
#95 = DIRECTION ( 'NONE',  ( -3.491481338843133355E-15, 0.0000000000000000000, -1.000000000000000000 ) ) ;
#96 = PRODUCT_DEFINITION_SHAPE ( 'NONE', 'NONE',  #168 ) ;
#97 = APPROVAL_PERSON_ORGANIZATION ( #49, #174, #349 ) ;
#98 = AXIS2_PLACEMENT_3D ( 'NONE', #315, #347, #120 ) ;
#99 = AXIS2_PLACEMENT_3D ( 'NONE', #243, #263, #348 ) ;
#100 = CARTESIAN_POINT ( 'NONE',  ( -1.499999999999962252, 0.0000000000000000000, 9.501023813232050585 ) ) ;
#101 = FACE_BOUND ( 'NONE', #142, .T. ) ;
#102 = EDGE_CURVE ( 'NONE', #212, #212, #144, .T. ) ;
#103 = CALENDAR_DATE ( 2021, 17, 12 ) ;
#104 = CC_DESIGN_PERSON_AND_ORGANIZATION_ASSIGNMENT ( #161, #214, ( #168 ) ) ;
#105 = ORGANIZATION ( 'UNSPECIFIED', 'UNSPECIFIED', '' ) ;
#106 = AXIS2_PLACEMENT_3D ( 'NONE', #297, #229, #220 ) ;
#107 = TOROIDAL_SURFACE ( 'NONE', #238, 1.489999999999999547, 1.000000000000000000 ) ;
#108 = CARTESIAN_POINT ( 'NONE',  ( 2.793185071074504811E-16, 0.0000000000000000000, 0.07999999999999993228 ) ) ;
#109 = COORDINATED_UNIVERSAL_TIME_OFFSET ( 1, 0, .AHEAD. ) ;
#110 = DIRECTION ( 'NONE',  ( -1.000000000000000000, 0.0000000000000000000, 3.491481338843132961E-15 ) ) ;
#111 = APPROVAL_STATUS ( 'not_yet_approved' ) ;
#112 = EDGE_LOOP ( 'NONE', ( #363 ) ) ;
#113 = LOCAL_TIME ( 8, 11, 13.00000000000000000, #355 ) ;
#114 = CIRCLE ( 'NONE', #63, 0.4899999999999993250 ) ;
#115 = EDGE_LOOP ( 'NONE', ( #34 ) ) ;
#116 = EDGE_LOOP ( 'NONE', ( #25 ) ) ;
#117 = DIRECTION ( 'NONE',  ( -3.491481338843133355E-15, 0.0000000000000000000, -1.000000000000000000 ) ) ;
#118 = FACE_OUTER_BOUND ( 'NONE', #112, .T. ) ;
#119 = CARTESIAN_POINT ( 'NONE',  ( 2.372238921071936408E-15, 0.0000000000000000000, 0.6794362308858719057 ) ) ;
#120 = DIRECTION ( 'NONE',  ( -1.000000000000000000, 0.0000000000000000000, 3.469446951953624444E-15 ) ) ;
#121 = APPLICATION_PROTOCOL_DEFINITION ( 'international standard', 'config_control_design', 1994, #159 ) ;
#122 = DIRECTION ( 'NONE',  ( -1.000000000000000000, 0.0000000000000000000, 3.443473324590984806E-15 ) ) ;
#123 = ORIENTED_EDGE ( 'NONE', *, *, #354, .F. ) ;
#124 = ADVANCED_FACE ( 'NONE', ( #101, #350 ), #278, .T. ) ;
#125 = VERTEX_POINT ( 'NONE', #208 ) ;
#126 = DIRECTION ( 'NONE',  ( -1.000000000000000000, 0.0000000000000000000, 3.491481338843133355E-15 ) ) ;
#127 = CARTESIAN_POINT ( 'NONE',  ( -0.5509999999999984910, 0.0000000000000000000, 0.4401059152131603924 ) ) ;
#128 = EDGE_LOOP ( 'NONE', ( #275 ) ) ;
#129 = VERTEX_POINT ( 'NONE', #6 ) ;
#130 = FACE_OUTER_BOUND ( 'NONE', #325, .T. ) ;
#131 = MANIFOLD_SOLID_BREP ( 'Corps-Déplacer/Copier1[1]', #163 ) ;
#132 = APPROVAL_DATE_TIME ( #188, #264 ) ;
#133 = DATE_TIME_ROLE ( 'classification_date' ) ;
#134 = DIRECTION ( 'NONE',  ( -3.491481338843133355E-15, 0.0000000000000000000, -1.000000000000000000 ) ) ;
#135 = EDGE_CURVE ( 'NONE', #129, #129, #255, .T. ) ;
#136 = DIRECTION ( 'NONE',  ( -1.000000000000000000, 0.0000000000000000000, 3.540251991789407039E-15 ) ) ;
#137 = DATE_AND_TIME ( #318, #311 ) ;
#138 = DIRECTION ( 'NONE',  ( -3.491481338843133355E-15, 0.0000000000000000000, -1.000000000000000000 ) ) ;
#139 = APPROVAL_PERSON_ORGANIZATION ( #261, #326, #262 ) ;
#140 = EDGE_LOOP ( 'NONE', ( #280 ) ) ;
#141 = PRODUCT_RELATED_PRODUCT_CATEGORY ( 'detail', '', ( #272 ) ) ;
#142 = EDGE_LOOP ( 'NONE', ( #2 ) ) ;
#143 = EDGE_LOOP ( 'NONE', ( #123 ) ) ;
#144 = CIRCLE ( 'NONE', #99, 0.7650000000000000133 ) ;
#145 = VERTEX_POINT ( 'NONE', #252 ) ;
#146 = DIRECTION ( 'NONE',  ( -1.000000000000000000, 0.0000000000000000000, 4.625929269271500311E-15 ) ) ;
#147 = VERTEX_POINT ( 'NONE', #100 ) ;
#148 = DIRECTION ( 'NONE',  ( 1.000000000000000000, 0.0000000000000000000, -3.507712910982514253E-15 ) ) ;
#149 = CARTESIAN_POINT ( 'NONE',  ( 0.0000000000000000000, 0.0000000000000000000, 0.0000000000000000000 ) ) ;
#150 = CARTESIAN_POINT ( 'NONE',  ( -0.5240741737109091414, 0.0000000000000000000, 5.858819045102515943 ) ) ;
#151 = VERTEX_POINT ( 'NONE', #341 ) ;
#152 = ORIENTED_EDGE ( 'NONE', *, *, #222, .F. ) ;
#153 = CARTESIAN_POINT ( 'NONE',  ( 0.0000000000000000000, 0.0000000000000000000, 0.0000000000000000000 ) ) ;
#154 = DATE_AND_TIME ( #72, #113 ) ;
#155 = ADVANCED_FACE ( 'NONE', ( #290, #160 ), #207, .T. ) ;
#156 = LOCAL_TIME ( 8, 11, 13.00000000000000000, #109 ) ;
#157 = CIRCLE ( 'NONE', #338, 0.5240741737109296805 ) ;
#158 = PERSON_AND_ORGANIZATION ( #186, #105 ) ;
#159 = APPLICATION_CONTEXT ( 'configuration controlled 3d designs of mechanical parts and assemblies' ) ;
#160 = FACE_BOUND ( 'NONE', #226, .T. ) ;
#161 = PERSON_AND_ORGANIZATION ( #186, #105 ) ;
#162 = FACE_OUTER_BOUND ( 'NONE', #67, .T. ) ;
#163 = CLOSED_SHELL ( 'NONE', ( #199, #307, #80, #321, #124, #331, #319, #10 ) ) ;
#164 = PERSON_AND_ORGANIZATION ( #186, #105 ) ;
#165 = FACE_OUTER_BOUND ( 'NONE', #140, .T. ) ;
#166 = ORIENTED_EDGE ( 'NONE', *, *, #225, .T. ) ;
#167 = ADVANCED_FACE ( 'NONE', ( #68, #170 ), #57, .T. ) ;
#168 = PRODUCT_DEFINITION ( 'UNKNOWN', '', #266, #184 ) ;
#169 = CIRCLE ( 'NONE', #75, 0.5510000000000000453 ) ;
#170 = FACE_OUTER_BOUND ( 'NONE', #179, .T. ) ;
#171 = DIRECTION ( 'NONE',  ( -1.000000000000000000, 0.0000000000000000000, 3.491481338843133750E-15 ) ) ;
#172 = EDGE_CURVE ( 'NONE', #239, #239, #339, .T. ) ;
#173 = DIRECTION ( 'NONE',  ( -1.000000000000000000, 0.0000000000000000000, 3.443473324590984806E-15 ) ) ;
#174 = APPROVAL ( #111, 'UNSPECIFIED' ) ;
#175 = AXIS2_PLACEMENT_3D ( 'NONE', #8, #95, #211 ) ;
#176 =( LENGTH_UNIT ( ) NAMED_UNIT ( * ) SI_UNIT ( .MILLI., .METRE. ) );
#177 = EDGE_LOOP ( 'NONE', ( #84 ) ) ;
#178 = CARTESIAN_POINT ( 'NONE',  ( -0.4899999999999798406, 0.0000000000000000000, 5.600000000000001421 ) ) ;
#179 = EDGE_LOOP ( 'NONE', ( #36 ) ) ;
#180 = CONICAL_SURFACE ( 'NONE', #344, 0.7650000000000000133, 1.047197551196599630 ) ;
#181 = AXIS2_PLACEMENT_3D ( 'NONE', #329, #21, #173 ) ;
#182 = DIRECTION ( 'NONE',  ( 3.491481338843133355E-15, 0.0000000000000000000, 1.000000000000000000 ) ) ;
#183 = DIRECTION ( 'NONE',  ( -3.491481338843133355E-15, 0.0000000000000000000, -1.000000000000000000 ) ) ;
#184 = DESIGN_CONTEXT ( 'detailed design', #299, 'design' ) ;
#185 = EDGE_CURVE ( 'NONE', #210, #210, #42, .T. ) ;
#186 = PERSON ( 'UNSPECIFIED', 'UNSPECIFIED', 'UNSPECIFIED', ('UNSPECIFIED'), ('UNSPECIFIED'), ('UNSPECIFIED') ) ;
#187 = CARTESIAN_POINT ( 'NONE',  ( 0.0000000000000000000, 0.0000000000000000000, 0.0000000000000000000 ) ) ;
#188 = DATE_AND_TIME ( #17, #48 ) ;
#189 = FACE_OUTER_BOUND ( 'NONE', #65, .T. ) ;
#190 = CIRCLE ( 'NONE', #359, 0.5510000000000000453 ) ;
#191 = SECURITY_CLASSIFICATION_LEVEL ( 'unclassified' ) ;
#192 = DIRECTION ( 'NONE',  ( 1.000000000000000000, 0.0000000000000000000, -3.469446951953624444E-15 ) ) ;
#193 = PERSON_AND_ORGANIZATION_ROLE ( 'creator' ) ;
#194 = DIRECTION ( 'NONE',  ( -3.491481338843133355E-15, 0.0000000000000000000, -1.000000000000000000 ) ) ;
#195 = PERSON_AND_ORGANIZATION ( #186, #105 ) ;
#196 = DIRECTION ( 'NONE',  ( -3.491481338843133355E-15, 0.0000000000000000000, -1.000000000000000000 ) ) ;
#197 = EDGE_LOOP ( 'NONE', ( #334 ) ) ;
#198 = FACE_OUTER_BOUND ( 'NONE', #116, .T. ) ;
#199 = ADVANCED_FACE ( 'NONE', ( #165 ), #302, .F. ) ;
#200 = FACE_OUTER_BOUND ( 'NONE', #7, .T. ) ;
#201 = EDGE_LOOP ( 'NONE', ( #152 ) ) ;
#202 = CARTESIAN_POINT ( 'NONE',  ( 1.316288464743861212E-13, 0.0000000000000000000, 37.69999999999999574 ) ) ;
#203 = DIRECTION ( 'NONE',  ( -1.000000000000000000, 0.0000000000000000000, 3.310072434391034998E-15 ) ) ;
#204 = PLANE ( 'NONE',  #327 ) ;
#205 = CYLINDRICAL_SURFACE ( 'NONE', #233, 0.5510000000000000453 ) ;
#206 = CYLINDRICAL_SURFACE ( 'NONE', #271, 1.499999999999995337 ) ;
#207 = CONICAL_SURFACE ( 'NONE', #175, 0.5510000000000000453, 1.047197551196600518 ) ;
#208 = CARTESIAN_POINT ( 'NONE',  ( -1.499999999999863665, 0.0000000000000000000, 37.70000000000000284 ) ) ;
#209 = CC_DESIGN_DATE_AND_TIME_ASSIGNMENT ( #137, #133, ( #295 ) ) ;
#210 = VERTEX_POINT ( 'NONE', #240 ) ;
#211 = DIRECTION ( 'NONE',  ( -1.000000000000000000, 0.0000000000000000000, 3.443473324590984806E-15 ) ) ;
#212 = VERTEX_POINT ( 'NONE', #345 ) ;
#213 = VERTEX_POINT ( 'NONE', #127 ) ;
#214 = PERSON_AND_ORGANIZATION_ROLE ( 'creator' ) ;
#215 = CONICAL_SURFACE ( 'NONE', #256, 1.199999999999995293, 0.7853981633974453924 ) ;
#216 = DIRECTION ( 'NONE',  ( 1.000000000000000000, 0.0000000000000000000, -3.491481338843133355E-15 ) ) ;
#217 = APPROVAL_ROLE ( '' ) ;
#218 = DIRECTION ( 'NONE',  ( -1.000000000000000000, 0.0000000000000000000, 3.491481338843133750E-15 ) ) ;
#219 = PERSON_AND_ORGANIZATION_ROLE ( 'design_supplier' ) ;
#220 = DIRECTION ( 'NONE',  ( -1.000000000000000000, 0.0000000000000000000, 3.507712910982514253E-15 ) ) ;
#221 = AXIS2_PLACEMENT_3D ( 'NONE', #282, #35, #4 ) ;
#222 = EDGE_CURVE ( 'NONE', #151, #151, #12, .T. ) ;
#223 = AXIS2_PLACEMENT_3D ( 'NONE', #108, #27, #358 ) ;
#224 = EDGE_LOOP ( 'NONE', ( #296 ) ) ;
#225 = EDGE_CURVE ( 'NONE', #94, #94, #114, .T. ) ;
#226 = EDGE_LOOP ( 'NONE', ( #40 ) ) ;
#227 = CC_DESIGN_PERSON_AND_ORGANIZATION_ASSIGNMENT ( #16, #51, ( #272 ) ) ;
#228 = CIRCLE ( 'NONE', #69, 0.5510000000000000453 ) ;
#229 = DIRECTION ( 'NONE',  ( -3.491481338843133355E-15, 0.0000000000000000000, -1.000000000000000000 ) ) ;
#230 = ORIENTED_EDGE ( 'NONE', *, *, #172, .F. ) ;
#231 = MECHANICAL_CONTEXT ( 'NONE', #159, 'mechanical' ) ;
#232 = DIRECTION ( 'NONE',  ( -3.491481338843133355E-15, 0.0000000000000000000, -1.000000000000000000 ) ) ;
#233 = AXIS2_PLACEMENT_3D ( 'NONE', #149, #31, #171 ) ;
#234 =( NAMED_UNIT ( * ) PLANE_ANGLE_UNIT ( ) SI_UNIT ( $, .RADIAN. ) );
#235 = AXIS2_PLACEMENT_3D ( 'NONE', #356, #138, #273 ) ;
#236 = EDGE_LOOP ( 'NONE', ( #330 ) ) ;
#237 = EDGE_CURVE ( 'NONE', #259, #259, #157, .T. ) ;
#238 = AXIS2_PLACEMENT_3D ( 'NONE', #267, #19, #218 ) ;
#239 = VERTEX_POINT ( 'NONE', #91 ) ;
#240 = CARTESIAN_POINT ( 'NONE',  ( -0.5509999999999984910, 0.0000000000000000000, 0.4401059152131603924 ) ) ;
#241 = ORIENTED_EDGE ( 'NONE', *, *, #172, .T. ) ;
#242 = SHAPE_DEFINITION_REPRESENTATION ( #96, #54 ) ;
#243 = CARTESIAN_POINT ( 'NONE',  ( 7.107013529496993734E-16, 0.0000000000000000000, 0.2035529576065794044 ) ) ;
#244 = APPROVAL_DATE_TIME ( #154, #174 ) ;
#245 = CYLINDRICAL_SURFACE ( 'NONE', #346, 0.4899999999999993250 ) ;
#246 = COORDINATED_UNIVERSAL_TIME_OFFSET ( 1, 0, .AHEAD. ) ;
#247 = DIRECTION ( 'NONE',  ( -1.000000000000000000, 0.0000000000000000000, 3.443473324590984806E-15 ) ) ;
#248 = CARTESIAN_POINT ( 'NONE',  ( 1.955229549752154679E-14, 0.0000000000000000000, 5.599999999999999645 ) ) ;
#249 = APPROVAL_STATUS ( 'not_yet_approved' ) ;
#250 = DIRECTION ( 'NONE',  ( -1.000000000000000000, 0.0000000000000000000, 3.540251991789407039E-15 ) ) ;
#251 = LOCAL_TIME ( 8, 11, 13.00000000000000000, #246 ) ;
#252 = CARTESIAN_POINT ( 'NONE',  ( -0.7649999999999992362, 0.0000000000000000000, 0.2365529576065820705 ) ) ;
#253 = PLANE ( 'NONE',  #289 ) ;
#254 = CARTESIAN_POINT ( 'NONE',  ( 0.0000000000000000000, 0.0000000000000000000, 0.0000000000000000000 ) ) ;
#255 = CIRCLE ( 'NONE', #32, 1.199999999999995293 ) ;
#256 = AXIS2_PLACEMENT_3D ( 'NONE', #60, #117, #85 ) ;
#257 = FACE_OUTER_BOUND ( 'NONE', #309, .T. ) ;
#258 = CARTESIAN_POINT ( 'NONE',  ( 3.317264734380391139E-14, 0.0000000000000000000, 9.501023813232045256 ) ) ;
#259 = VERTEX_POINT ( 'NONE', #150 ) ;
#260 = CARTESIAN_POINT ( 'NONE',  ( 1.326762908760390423E-13, 0.0000000000000000000, 38.00000000000000000 ) ) ;
#261 = PERSON_AND_ORGANIZATION ( #186, #105 ) ;
#262 = APPROVAL_ROLE ( '' ) ;
#263 = DIRECTION ( 'NONE',  ( -3.491481338843133355E-15, 0.0000000000000000000, -1.000000000000000000 ) ) ;
#264 = APPROVAL ( #77, 'UNSPECIFIED' ) ;
#265 = CARTESIAN_POINT ( 'NONE',  ( 1.536621590081221138E-15, 0.0000000000000000000, 0.4401059152131585051 ) ) ;
#266 = PRODUCT_DEFINITION_FORMATION_WITH_SPECIFIED_SOURCE ( 'ANY', '', #272, .NOT_KNOWN. ) ;
#267 = CARTESIAN_POINT ( 'NONE',  ( 1.955229549752154679E-14, 0.0000000000000000000, 5.599999999999999645 ) ) ;
#268 = CARTESIAN_POINT ( 'NONE',  ( 1.536621590081221138E-15, 0.0000000000000000000, 0.4401059152131585051 ) ) ;
#269 = AXIS2_PLACEMENT_3D ( 'NONE', #187, #182, #46 ) ;
#270 = CIRCLE ( 'NONE', #106, 0.7650000000000000133 ) ;
#271 = AXIS2_PLACEMENT_3D ( 'NONE', #33, #66, #305 ) ;
#272 = PRODUCT ( '378085', '378085', '', ( #231 ) ) ;
#273 = DIRECTION ( 'NONE',  ( -1.000000000000000000, 0.0000000000000000000, 3.491481338843133750E-15 ) ) ;
#274 = CC_DESIGN_DATE_AND_TIME_ASSIGNMENT ( #317, #47, ( #168 ) ) ;
#275 = ORIENTED_EDGE ( 'NONE', *, *, #56, .T. ) ;
#276 = DIRECTION ( 'NONE',  ( -3.491481338843133355E-15, 0.0000000000000000000, -1.000000000000000000 ) ) ;
#277 = ORIENTED_EDGE ( 'NONE', *, *, #15, .T. ) ;
#278 = CONICAL_SURFACE ( 'NONE', #24, 1.499999999999995559, 0.2617993877991426355 ) ;
#279 =( NAMED_UNIT ( * ) SI_UNIT ( $, .STERADIAN. ) SOLID_ANGLE_UNIT ( ) );
#280 = ORIENTED_EDGE ( 'NONE', *, *, #316, .T. ) ;
#281 = DIRECTION ( 'NONE',  ( -3.491481338843133355E-15, 0.0000000000000000000, -1.000000000000000000 ) ) ;
#282 = CARTESIAN_POINT ( 'NONE',  ( 0.0000000000000000000, 0.0000000000000000000, 0.0000000000000000000 ) ) ;
#283 = CYLINDRICAL_SURFACE ( 'NONE', #298, 0.5510000000000000453 ) ;
#284 = CC_DESIGN_PERSON_AND_ORGANIZATION_ASSIGNMENT ( #288, #193, ( #266 ) ) ;
#285 = DIRECTION ( 'NONE',  ( -3.491481338843133355E-15, 0.0000000000000000000, -1.000000000000000000 ) ) ;
#286 = DIRECTION ( 'NONE',  ( -3.491481338843133355E-15, 0.0000000000000000000, -1.000000000000000000 ) ) ;
#287 = APPLICATION_PROTOCOL_DEFINITION ( 'international standard', 'config_control_design', 1994, #299 ) ;
#288 = PERSON_AND_ORGANIZATION ( #186, #105 ) ;
#289 = AXIS2_PLACEMENT_3D ( 'NONE', #93, #59, #41 ) ;
#290 = FACE_OUTER_BOUND ( 'NONE', #115, .T. ) ;
#291 = DIRECTION ( 'NONE',  ( -3.491481338843133355E-15, 0.0000000000000000000, -1.000000000000000000 ) ) ;
#292 = EDGE_CURVE ( 'NONE', #87, #87, #190, .T. ) ;
#293 = COORDINATED_UNIVERSAL_TIME_OFFSET ( 1, 0, .AHEAD. ) ;
#294 = EDGE_CURVE ( 'NONE', #145, #145, #270, .T. ) ;
#295 = SECURITY_CLASSIFICATION ( '', '', #191 ) ;
#296 = ORIENTED_EDGE ( 'NONE', *, *, #102, .T. ) ;
#297 = CARTESIAN_POINT ( 'NONE',  ( 8.259202371315227505E-16, 0.0000000000000000000, 0.2365529576065793782 ) ) ;
#298 = AXIS2_PLACEMENT_3D ( 'NONE', #254, #286, #43 ) ;
#299 = APPLICATION_CONTEXT ( 'configuration controlled 3d designs of mechanical parts and assemblies' ) ;
#300 = EDGE_LOOP ( 'NONE', ( #277 ) ) ;
#301 = FACE_OUTER_BOUND ( 'NONE', #58, .T. ) ;
#302 = PLANE ( 'NONE',  #18 ) ;
#303 = FACE_OUTER_BOUND ( 'NONE', #143, .T. ) ;
#304 = CC_DESIGN_APPROVAL ( #174, ( #266 ) ) ;
#305 = DIRECTION ( 'NONE',  ( -1.000000000000000000, 0.0000000000000000000, 3.491481338843133355E-15 ) ) ;
#306 = ORIENTED_EDGE ( 'NONE', *, *, #185, .F. ) ;
#307 = ADVANCED_FACE ( 'NONE', ( #198, #162 ), #313, .F. ) ;
#308 = CARTESIAN_POINT ( 'NONE',  ( 1.257303082973770509E-15, 0.0000000000000000000, 0.3601059152131584895 ) ) ;
#309 = EDGE_LOOP ( 'NONE', ( #81 ) ) ;
#310 = UNCERTAINTY_MEASURE_WITH_UNIT (LENGTH_MEASURE( 1.000000000000000082E-05 ), #176, 'distance_accuracy_value', 'NONE');
#311 = LOCAL_TIME ( 8, 11, 13.00000000000000000, #71 ) ;
#312 = CARTESIAN_POINT ( 'NONE',  ( -0.5509999999999987130, 0.0000000000000000000, 0.3601059152131604324 ) ) ;
#313 = TOROIDAL_SURFACE ( 'NONE', #353, 0.9899999999999993250, 0.5000000000000000000 ) ;
#314 = EDGE_LOOP ( 'NONE', ( #30 ) ) ;
#315 = CARTESIAN_POINT ( 'NONE',  ( 3.317264734380391139E-14, 0.0000000000000000000, 9.501023813232045256 ) ) ;
#316 = EDGE_CURVE ( 'NONE', #213, #213, #228, .T. ) ;
#317 = DATE_AND_TIME ( #14, #156 ) ;
#318 = CALENDAR_DATE ( 2021, 17, 12 ) ;
#319 = ADVANCED_FACE ( 'NONE', ( #361, #53 ), #215, .T. ) ;
#320 = CARTESIAN_POINT ( 'NONE',  ( 2.372238921071936408E-15, 0.0000000000000000000, 0.6794362308858719057 ) ) ;
#321 = ADVANCED_FACE ( 'NONE', ( #200, #301 ), #107, .F. ) ;
#322 = EDGE_LOOP ( 'NONE', ( #306 ) ) ;
#323 = DIRECTION ( 'NONE',  ( 3.491481338843133355E-15, 0.0000000000000000000, 1.000000000000000000 ) ) ;
#324 = AXIS2_PLACEMENT_3D ( 'NONE', #119, #196, #250 ) ;
#325 = EDGE_LOOP ( 'NONE', ( #166 ) ) ;
#326 = APPROVAL ( #249, 'UNSPECIFIED' ) ;
#327 = AXIS2_PLACEMENT_3D ( 'NONE', #92, #232, #336 ) ;
#328 = FACE_OUTER_BOUND ( 'NONE', #224, .T. ) ;
#329 = CARTESIAN_POINT ( 'NONE',  ( 1.536621590081221138E-15, 0.0000000000000000000, 0.4401059152131585051 ) ) ;
#330 = ORIENTED_EDGE ( 'NONE', *, *, #135, .T. ) ;
#331 = ADVANCED_FACE ( 'NONE', ( #50, #79 ), #206, .T. ) ;
#332 = FACE_OUTER_BOUND ( 'NONE', #322, .T. ) ;
#333 = CC_DESIGN_PERSON_AND_ORGANIZATION_ASSIGNMENT ( #158, #219, ( #266 ) ) ;
#334 = ORIENTED_EDGE ( 'NONE', *, *, #135, .F. ) ;
#335 = CARTESIAN_POINT ( 'NONE',  ( 7.107013529496993734E-16, 0.0000000000000000000, 0.2035529576065794044 ) ) ;
#336 = DIRECTION ( 'NONE',  ( -1.000000000000000000, 0.0000000000000000000, 3.491481338843133355E-15 ) ) ;
#337 = FACE_BOUND ( 'NONE', #201, .T. ) ;
#338 = AXIS2_PLACEMENT_3D ( 'NONE', #82, #134, #203 ) ;
#339 = CIRCLE ( 'NONE', #324, 0.4899999999999993250 ) ;
#340 = ORIENTED_EDGE ( 'NONE', *, *, #237, .T. ) ;
#341 = CARTESIAN_POINT ( 'NONE',  ( -0.5509999999999996012, 0.0000000000000000000, 0.08000000000000186129 ) ) ;
#342 = ORIENTED_EDGE ( 'NONE', *, *, #225, .F. ) ;
#343 = VERTEX_POINT ( 'NONE', #312 ) ;
#344 = AXIS2_PLACEMENT_3D ( 'NONE', #335, #38, #148 ) ;
#345 = CARTESIAN_POINT ( 'NONE',  ( -0.7649999999999993472, 0.0000000000000000000, 0.2035529576065820689 ) ) ;
#346 = AXIS2_PLACEMENT_3D ( 'NONE', #153, #44, #126 ) ;
#347 = DIRECTION ( 'NONE',  ( -3.491481338843133355E-15, 0.0000000000000000000, -1.000000000000000000 ) ) ;
#348 = DIRECTION ( 'NONE',  ( -1.000000000000000000, 0.0000000000000000000, 3.507712910982514253E-15 ) ) ;
#349 = APPROVAL_ROLE ( '' ) ;
#350 = FACE_OUTER_BOUND ( 'NONE', #300, .T. ) ;
#351 = CC_DESIGN_APPROVAL ( #264, ( #168 ) ) ;
#352 = CIRCLE ( 'NONE', #98, 1.499999999999995559 ) ;
#353 = AXIS2_PLACEMENT_3D ( 'NONE', #320, #78, #110 ) ;
#354 = EDGE_CURVE ( 'NONE', #343, #343, #169, .T. ) ;
#355 = COORDINATED_UNIVERSAL_TIME_OFFSET ( 1, 0, .AHEAD. ) ;
#356 = CARTESIAN_POINT ( 'NONE',  ( 0.0000000000000000000, 0.0000000000000000000, 0.0000000000000000000 ) ) ;
#357 = DATE_AND_TIME ( #103, #251 ) ;
#358 = DIRECTION ( 'NONE',  ( -1.000000000000000000, 0.0000000000000000000, 3.492665800656570884E-15 ) ) ;
#359 = AXIS2_PLACEMENT_3D ( 'NONE', #61, #276, #29 ) ;
#360 = EDGE_LOOP ( 'NONE', ( #28 ) ) ;
#361 = FACE_OUTER_BOUND ( 'NONE', #83, .T. ) ;
#362 = ADVANCED_FACE ( 'NONE', ( #257, #45 ), #283, .T. ) ;
#363 = ORIENTED_EDGE ( 'NONE', *, *, #185, .T. ) ;
ENDSEC;
END-ISO-10303-21;
