ISO-10303-21;
HEADER;
FILE_DESCRIPTION (( 'STEP AP203' ),
    '1' );
FILE_NAME ('378084.step',
    '2021-12-17T07:11:13',
    ( '' ),
    ( '' ),
    'SwSTEP 2.0',
    'SolidWorks 2019',
    '' );
FILE_SCHEMA (( 'CONFIG_CONTROL_DESIGN' ));
ENDSEC;

DATA;
#1 = ORIENTED_EDGE ( 'NONE', *, *, #350, .T. ) ;
#2 = CONICAL_SURFACE ( 'NONE', #266, 1.199999999999995293, 0.7853981633974453924 ) ;
#3 = VERTEX_POINT ( 'NONE', #227 ) ;
#4 = VERTEX_POINT ( 'NONE', #284 ) ;
#5 = DIRECTION ( 'NONE',  ( -1.000000000000000000, 0.0000000000000000000, 3.491481338843133750E-15 ) ) ;
#6 = AXIS2_PLACEMENT_3D ( 'NONE', #60, #363, #141 ) ;
#7 = DIRECTION ( 'NONE',  ( -1.000000000000000000, 0.0000000000000000000, 3.491481338843133355E-15 ) ) ;
#8 = ADVANCED_FACE ( 'NONE', ( #20, #116 ), #145, .T. ) ;
#9 = CARTESIAN_POINT ( 'NONE',  ( 0.0000000000000000000, 0.0000000000000000000, 0.0000000000000000000 ) ) ;
#10 = EDGE_CURVE ( 'NONE', #158, #158, #297, .T. ) ;
#11 = DIRECTION ( 'NONE',  ( 3.491481338843133355E-15, 0.0000000000000000000, 1.000000000000000000 ) ) ;
#12 = EDGE_LOOP ( 'NONE', ( #65 ) ) ;
#13 = APPROVAL_DATE_TIME ( #143, #221 ) ;
#14 = AXIS2_PLACEMENT_3D ( 'NONE', #260, #240, #129 ) ;
#15 = CARTESIAN_POINT ( 'NONE',  ( 0.0000000000000000000, 0.0000000000000000000, 0.0000000000000000000 ) ) ;
#16 = DIRECTION ( 'NONE',  ( -3.491481338843133355E-15, 0.0000000000000000000, -1.000000000000000000 ) ) ;
#17 = DATE_AND_TIME ( #139, #249 ) ;
#18 = DIRECTION ( 'NONE',  ( -3.491481338843133355E-15, 0.0000000000000000000, -1.000000000000000000 ) ) ;
#19 = EDGE_CURVE ( 'NONE', #112, #112, #151, .T. ) ;
#20 = FACE_BOUND ( 'NONE', #12, .T. ) ;
#21 = CC_DESIGN_PERSON_AND_ORGANIZATION_ASSIGNMENT ( #324, #95, ( #232 ) ) ;
#22 = VERTEX_POINT ( 'NONE', #301 ) ;
#23 = CARTESIAN_POINT ( 'NONE',  ( 6.253913472899773661E-16, 0.0000000000000000000, 0.1791192008768388300 ) ) ;
#24 = AXIS2_PLACEMENT_3D ( 'NONE', #281, #360, #220 ) ;
#25 = CONICAL_SURFACE ( 'NONE', #144, 1.499999999999995559, 0.2617993877991426355 ) ;
#26 = DIRECTION ( 'NONE',  ( -3.491481338843133355E-15, 0.0000000000000000000, -1.000000000000000000 ) ) ;
#27 = ADVANCED_FACE ( 'NONE', ( #147, #201 ), #309, .F. ) ;
#28 = DATE_TIME_ROLE ( 'creation_date' ) ;
#29 = ORIENTED_EDGE ( 'NONE', *, *, #128, .F. ) ;
#30 = CARTESIAN_POINT ( 'NONE',  ( -0.4549999999999973510, 0.0000000000000000000, 0.6072361290146680579 ) ) ;
#31 = APPROVAL_ROLE ( '' ) ;
#32 = PRODUCT_DEFINITION_SHAPE ( 'NONE', 'NONE',  #123 ) ;
#33 = CALENDAR_DATE ( 2021, 17, 12 ) ;
#34 = ORIENTED_EDGE ( 'NONE', *, *, #57, .F. ) ;
#35 = CARTESIAN_POINT ( 'NONE',  ( 1.326762908760390423E-13, 0.0000000000000000000, 38.00000000000000000 ) ) ;
#36 = ADVANCED_BREP_SHAPE_REPRESENTATION ( '378084', ( #282, #162, #238 ), #148 ) ;
#37 = AXIS2_PLACEMENT_3D ( 'NONE', #70, #177, #314 ) ;
#38 = CARTESIAN_POINT ( 'NONE',  ( -1.199999999999862732, 0.0000000000000000000, 38.00000000000000711 ) ) ;
#39 = CIRCLE ( 'NONE', #261, 0.4890741737109295939 ) ;
#40 = PERSON_AND_ORGANIZATION ( #246, #290 ) ;
#41 = EDGE_LOOP ( 'NONE', ( #1 ) ) ;
#42 = VERTEX_POINT ( 'NONE', #312 ) ;
#43 = APPROVAL_PERSON_ORGANIZATION ( #195, #289, #308 ) ;
#44 = DIRECTION ( 'NONE',  ( -3.491481338843133355E-15, 0.0000000000000000000, -1.000000000000000000 ) ) ;
#45 = DIRECTION ( 'NONE',  ( 1.000000000000000000, 0.0000000000000000000, -3.491481338843133355E-15 ) ) ;
#46 = DIRECTION ( 'NONE',  ( 1.000000000000000000, 0.0000000000000000000, -3.491481338843133355E-15 ) ) ;
#47 = AXIS2_PLACEMENT_3D ( 'NONE', #277, #361, #110 ) ;
#48 = DIRECTION ( 'NONE',  ( -1.000000000000000000, 0.0000000000000000000, 3.535441866800558623E-15 ) ) ;
#49 = CARTESIAN_POINT ( 'NONE',  ( 0.0000000000000000000, 0.0000000000000000000, 0.0000000000000000000 ) ) ;
#50 = EDGE_LOOP ( 'NONE', ( #325 ) ) ;
#51 = AXIS2_PLACEMENT_3D ( 'NONE', #23, #135, #338 ) ;
#52 = CC_DESIGN_SECURITY_CLASSIFICATION ( #131, ( #232 ) ) ;
#53 = CARTESIAN_POINT ( 'NONE',  ( -1.499999999999863665, 0.0000000000000000000, 37.70000000000000284 ) ) ;
#54 = APPROVAL_DATE_TIME ( #142, #340 ) ;
#55 = FACE_OUTER_BOUND ( 'NONE', #264, .T. ) ;
#56 = DIRECTION ( 'NONE',  ( -3.491481338843133355E-15, 0.0000000000000000000, -1.000000000000000000 ) ) ;
#57 = EDGE_CURVE ( 'NONE', #248, #248, #189, .T. ) ;
#58 = CALENDAR_DATE ( 2021, 17, 12 ) ;
#59 = CIRCLE ( 'NONE', #259, 1.199999999999995293 ) ;
#60 = CARTESIAN_POINT ( 'NONE',  ( 0.0000000000000000000, 0.0000000000000000000, 0.0000000000000000000 ) ) ;
#61 = DIRECTION ( 'NONE',  ( -3.491481338843133355E-15, 0.0000000000000000000, -1.000000000000000000 ) ) ;
#62 = APPROVAL_STATUS ( 'not_yet_approved' ) ;
#63 = ORIENTED_EDGE ( 'NONE', *, *, #10, .T. ) ;
#64 = DIRECTION ( 'NONE',  ( -1.000000000000000000, 0.0000000000000000000, 3.546953753076576359E-15 ) ) ;
#65 = ORIENTED_EDGE ( 'NONE', *, *, #19, .F. ) ;
#66 = EDGE_CURVE ( 'NONE', #134, #134, #237, .T. ) ;
#67 = VERTEX_POINT ( 'NONE', #121 ) ;
#68 = CIRCLE ( 'NONE', #320, 0.5059999999999998943 ) ;
#69 = VERTEX_POINT ( 'NONE', #226 ) ;
#70 = CARTESIAN_POINT ( 'NONE',  ( 2.120153612726048968E-15, 0.0000000000000000000, 0.6072361290146663926 ) ) ;
#71 = LOCAL_TIME ( 8, 11, 13.00000000000000000, #257 ) ;
#72 = DIRECTION ( 'NONE',  ( -3.491481338843133355E-15, 0.0000000000000000000, -1.000000000000000000 ) ) ;
#73 = DIRECTION ( 'NONE',  ( -3.491481338843133355E-15, 0.0000000000000000000, -1.000000000000000000 ) ) ;
#74 = FACE_OUTER_BOUND ( 'NONE', #275, .T. ) ;
#75 = CONICAL_SURFACE ( 'NONE', #200, 0.5059999999999998943, 1.047197551196599852 ) ;
#76 = CC_DESIGN_PERSON_AND_ORGANIZATION_ASSIGNMENT ( #90, #111, ( #279 ) ) ;
#77 = CYLINDRICAL_SURFACE ( 'NONE', #14, 1.499999999999995337 ) ;
#78 = ORIENTED_EDGE ( 'NONE', *, *, #215, .F. ) ;
#79 = DIRECTION ( 'NONE',  ( -1.000000000000000000, 0.0000000000000000000, 3.491481338843133750E-15 ) ) ;
#80 = EDGE_LOOP ( 'NONE', ( #288 ) ) ;
#81 = DIRECTION ( 'NONE',  ( 1.000000000000000000, 0.0000000000000000000, -3.491481338843133355E-15 ) ) ;
#82 = AXIS2_PLACEMENT_3D ( 'NONE', #298, #56, #136 ) ;
#83 = CLOSED_SHELL ( 'NONE', ( #353, #362, #247, #27, #322, #202, #228, #171 ) ) ;
#84 = CARTESIAN_POINT ( 'NONE',  ( -0.4549999999999816969, 0.0000000000000000000, 5.100000000000001421 ) ) ;
#85 = PLANE ( 'NONE',  #109 ) ;
#86 = CARTESIAN_POINT ( 'NONE',  ( 1.871021669421260594E-14, 0.0000000000000000000, 5.358819045102513279 ) ) ;
#87 = COORDINATED_UNIVERSAL_TIME_OFFSET ( 1, 0, .AHEAD. ) ;
#88 = APPROVAL_DATE_TIME ( #304, #289 ) ;
#89 = CC_DESIGN_APPROVAL ( #221, ( #232 ) ) ;
#90 = PERSON_AND_ORGANIZATION ( #246, #290 ) ;
#91 = LOCAL_TIME ( 8, 11, 13.00000000000000000, #106 ) ;
#92 = ADVANCED_FACE ( 'NONE', ( #348, #296 ), #318, .T. ) ;
#93 = ORIENTED_EDGE ( 'NONE', *, *, #350, .F. ) ;
#94 = DIRECTION ( 'NONE',  ( -1.000000000000000000, 0.0000000000000000000, 3.481874565788428887E-15 ) ) ;
#95 = PERSON_AND_ORGANIZATION_ROLE ( 'creator' ) ;
#96 = CYLINDRICAL_SURFACE ( 'NONE', #125, 0.5059999999999998943 ) ;
#97 = ADVANCED_FACE ( 'NONE', ( #209, #265 ), #183, .T. ) ;
#98 = PRODUCT_RELATED_PRODUCT_CATEGORY ( 'detail', '', ( #279 ) ) ;
#99 = CARTESIAN_POINT ( 'NONE',  ( 6.253913472899773661E-16, 0.0000000000000000000, 0.1791192008768388300 ) ) ;
#100 = DIRECTION ( 'NONE',  ( -3.491481338843133355E-15, 0.0000000000000000000, -1.000000000000000000 ) ) ;
#101 = ORIENTED_EDGE ( 'NONE', *, *, #287, .F. ) ;
#102 = TOROIDAL_SURFACE ( 'NONE', #82, 0.9549999999999995159, 0.5000000000000000000 ) ;
#103 = FACE_OUTER_BOUND ( 'NONE', #299, .T. ) ;
#104 = ADVANCED_FACE ( 'NONE', ( #152, #357 ), #75, .T. ) ;
#105 = FACE_BOUND ( 'NONE', #285, .T. ) ;
#106 = COORDINATED_UNIVERSAL_TIME_OFFSET ( 1, 0, .AHEAD. ) ;
#107 = CARTESIAN_POINT ( 'NONE',  ( -0.5059999999999988951, 0.0000000000000000000, 0.3172384017536793444 ) ) ;
#108 = AXIS2_PLACEMENT_3D ( 'NONE', #193, #331, #252 ) ;
#109 = AXIS2_PLACEMENT_3D ( 'NONE', #163, #213, #81 ) ;
#110 = DIRECTION ( 'NONE',  ( -1.000000000000000000, 0.0000000000000000000, 3.469446951953624444E-15 ) ) ;
#111 = PERSON_AND_ORGANIZATION_ROLE ( 'design_owner' ) ;
#112 = VERTEX_POINT ( 'NONE', #196 ) ;
#113 = ADVANCED_FACE ( 'NONE', ( #103, #154 ), #96, .T. ) ;
#114 = COORDINATED_UNIVERSAL_TIME_OFFSET ( 1, 0, .AHEAD. ) ;
#115 = DIRECTION ( 'NONE',  ( -3.491481338843133355E-15, 0.0000000000000000000, -1.000000000000000000 ) ) ;
#116 = FACE_OUTER_BOUND ( 'NONE', #268, .T. ) ;
#117 = AXIS2_PLACEMENT_3D ( 'NONE', #205, #73, #293 ) ;
#118 = EDGE_LOOP ( 'NONE', ( #254 ) ) ;
#119 = ORIENTED_EDGE ( 'NONE', *, *, #317, .F. ) ;
#120 = DATE_AND_TIME ( #166, #71 ) ;
#121 = CARTESIAN_POINT ( 'NONE',  ( -1.499999999999963585, 0.0000000000000000000, 9.131645591496965864 ) ) ;
#122 = AXIS2_PLACEMENT_3D ( 'NONE', #99, #207, #319 ) ;
#123 = PRODUCT_DEFINITION ( 'UNKNOWN', '', #232, #206 ) ;
#124 = EDGE_LOOP ( 'NONE', ( #343 ) ) ;
#125 = AXIS2_PLACEMENT_3D ( 'NONE', #204, #72, #79 ) ;
#126 = PLANE ( 'NONE',  #231 ) ;
#127 = PLANE ( 'NONE',  #179 ) ;
#128 = EDGE_CURVE ( 'NONE', #22, #22, #175, .T. ) ;
#129 = DIRECTION ( 'NONE',  ( -1.000000000000000000, 0.0000000000000000000, 3.491481338843133355E-15 ) ) ;
#130 = ORIENTED_EDGE ( 'NONE', *, *, #66, .F. ) ;
#131 = SECURITY_CLASSIFICATION ( '', '', #333 ) ;
#132 = FACE_OUTER_BOUND ( 'NONE', #210, .T. ) ;
#133 = ORIENTED_EDGE ( 'NONE', *, *, #66, .T. ) ;
#134 = VERTEX_POINT ( 'NONE', #107 ) ;
#135 = DIRECTION ( 'NONE',  ( 3.491481338843133355E-15, 0.0000000000000000000, 1.000000000000000000 ) ) ;
#136 = DIRECTION ( 'NONE',  ( -1.000000000000000000, 0.0000000000000000000, 3.491481338843132961E-15 ) ) ;
#137 = AXIS2_PLACEMENT_3D ( 'NONE', #211, #243, #46 ) ;
#138 = ADVANCED_FACE ( 'NONE', ( #245 ), #155, .T. ) ;
#139 = CALENDAR_DATE ( 2021, 17, 12 ) ;
#140 = PERSON_AND_ORGANIZATION_ROLE ( 'creator' ) ;
#141 = DIRECTION ( 'NONE',  ( -1.000000000000000000, 0.0000000000000000000, 3.491481338843133355E-15 ) ) ;
#142 = DATE_AND_TIME ( #160, #91 ) ;
#143 = DATE_AND_TIME ( #33, #153 ) ;
#144 = AXIS2_PLACEMENT_3D ( 'NONE', #270, #326, #223 ) ;
#145 = CONICAL_SURFACE ( 'NONE', #51, 0.6950000000000000622, 1.047197551196599852 ) ;
#146 = EDGE_LOOP ( 'NONE', ( #133 ) ) ;
#147 = FACE_OUTER_BOUND ( 'NONE', #323, .T. ) ;
#148 =( GEOMETRIC_REPRESENTATION_CONTEXT ( 3 ) GLOBAL_UNCERTAINTY_ASSIGNED_CONTEXT ( ( #286 ) ) GLOBAL_UNIT_ASSIGNED_CONTEXT ( ( #342, #235, #229 ) ) REPRESENTATION_CONTEXT ( 'NONE', 'WORKASPACE' ) );
#149 = CARTESIAN_POINT ( 'NONE',  ( -0.5059999999999986731, 0.0000000000000000000, 0.3872384017536793510 ) ) ;
#150 = FACE_OUTER_BOUND ( 'NONE', #233, .T. ) ;
#151 = CIRCLE ( 'NONE', #346, 0.5059999999999998943 ) ;
#152 = FACE_OUTER_BOUND ( 'NONE', #173, .T. ) ;
#153 = LOCAL_TIME ( 8, 11, 13.00000000000000000, #278 ) ;
#154 = FACE_OUTER_BOUND ( 'NONE', #313, .T. ) ;
#155 = PLANE ( 'NONE',  #137 ) ;
#156 = DIRECTION ( 'NONE',  ( -3.491481338843133355E-15, 0.0000000000000000000, -1.000000000000000000 ) ) ;
#157 = PERSON_AND_ORGANIZATION ( #246, #290 ) ;
#158 = VERTEX_POINT ( 'NONE', #53 ) ;
#159 = EDGE_CURVE ( 'NONE', #216, #216, #274, .T. ) ;
#160 = CALENDAR_DATE ( 2021, 17, 12 ) ;
#161 = CC_DESIGN_PERSON_AND_ORGANIZATION_ASSIGNMENT ( #157, #269, ( #131 ) ) ;
#162 = MANIFOLD_SOLID_BREP ( 'Corps-Déplacer/Copier1[2]', #300 ) ;
#163 = CARTESIAN_POINT ( 'NONE',  ( 1.352035653406404897E-15, -1.244598961811713919E-16, 0.3872384017536774636 ) ) ;
#164 = APPROVAL_STATUS ( 'not_yet_approved' ) ;
#165 = CIRCLE ( 'NONE', #217, 0.5059999999999998943 ) ;
#166 = CALENDAR_DATE ( 2021, 17, 12 ) ;
#167 = ORIENTED_EDGE ( 'NONE', *, *, #337, .T. ) ;
#168 = FACE_OUTER_BOUND ( 'NONE', #305, .T. ) ;
#169 = DATE_TIME_ROLE ( 'classification_date' ) ;
#170 = ORIENTED_EDGE ( 'NONE', *, *, #10, .F. ) ;
#171 = ADVANCED_FACE ( 'NONE', ( #185 ), #127, .F. ) ;
#172 = APPROVAL_ROLE ( '' ) ;
#173 = EDGE_LOOP ( 'NONE', ( #101 ) ) ;
#174 = AXIS2_PLACEMENT_3D ( 'NONE', #9, #316, #355 ) ;
#175 = CIRCLE ( 'NONE', #117, 0.5059999999999998943 ) ;
#176 = EDGE_LOOP ( 'NONE', ( #34 ) ) ;
#177 = DIRECTION ( 'NONE',  ( -3.491481338843133355E-15, 0.0000000000000000000, -1.000000000000000000 ) ) ;
#178 = EDGE_LOOP ( 'NONE', ( #78 ) ) ;
#179 = AXIS2_PLACEMENT_3D ( 'NONE', #292, #156, #7 ) ;
#180 = CC_DESIGN_PERSON_AND_ORGANIZATION_ASSIGNMENT ( #40, #140, ( #123 ) ) ;
#181 = CARTESIAN_POINT ( 'NONE',  ( 1.780655482809997696E-14, 0.0000000000000000000, 5.099999999999999645 ) ) ;
#182 = DIRECTION ( 'NONE',  ( -3.491481338843133355E-15, 0.0000000000000000000, -1.000000000000000000 ) ) ;
#183 = CYLINDRICAL_SURFACE ( 'NONE', #174, 0.6950000000000000622 ) ;
#184 = FACE_BOUND ( 'NONE', #41, .T. ) ;
#185 = FACE_OUTER_BOUND ( 'NONE', #214, .T. ) ;
#186 = ORIENTED_EDGE ( 'NONE', *, *, #57, .T. ) ;
#187 = FACE_OUTER_BOUND ( 'NONE', #236, .T. ) ;
#188 = ORIENTED_EDGE ( 'NONE', *, *, #159, .T. ) ;
#189 = CIRCLE ( 'NONE', #37, 0.4549999999999994604 ) ;
#190 = AXIS2_PLACEMENT_3D ( 'NONE', #294, #100, #321 ) ;
#191 = DIRECTION ( 'NONE',  ( -1.000000000000000000, 0.0000000000000000000, 5.782411586589379332E-15 ) ) ;
#192 = CC_DESIGN_PERSON_AND_ORGANIZATION_ASSIGNMENT ( #352, #194, ( #232 ) ) ;
#193 = CARTESIAN_POINT ( 'NONE',  ( 1.316288464743861212E-13, 0.0000000000000000000, 37.69999999999999574 ) ) ;
#194 = PERSON_AND_ORGANIZATION_ROLE ( 'design_supplier' ) ;
#195 = PERSON_AND_ORGANIZATION ( #246, #290 ) ;
#196 = CARTESIAN_POINT ( 'NONE',  ( -0.5059999999999996723, 0.0000000000000000000, 0.07000000000000178302 ) ) ;
#197 = ADVANCED_FACE ( 'NONE', ( #267 ), #126, .F. ) ;
#198 = DIRECTION ( 'NONE',  ( -3.491481338843133355E-15, 0.0000000000000000000, -1.000000000000000000 ) ) ;
#199 = APPLICATION_PROTOCOL_DEFINITION ( 'international standard', 'config_control_design', 1994, #307 ) ;
#200 = AXIS2_PLACEMENT_3D ( 'NONE', #239, #16, #48 ) ;
#201 = FACE_OUTER_BOUND ( 'NONE', #241, .T. ) ;
#202 = ADVANCED_FACE ( 'NONE', ( #150, #132 ), #77, .T. ) ;
#203 = ORIENTED_EDGE ( 'NONE', *, *, #311, .F. ) ;
#204 = CARTESIAN_POINT ( 'NONE',  ( 0.0000000000000000000, 0.0000000000000000000, 0.0000000000000000000 ) ) ;
#205 = CARTESIAN_POINT ( 'NONE',  ( 1.352035653406405292E-15, 0.0000000000000000000, 0.3872384017536775747 ) ) ;
#206 = DESIGN_CONTEXT ( 'detailed design', #307, 'design' ) ;
#207 = DIRECTION ( 'NONE',  ( -3.491481338843133355E-15, 0.0000000000000000000, -1.000000000000000000 ) ) ;
#208 = CIRCLE ( 'NONE', #24, 0.6950000000000001732 ) ;
#209 = FACE_OUTER_BOUND ( 'NONE', #178, .T. ) ;
#210 = EDGE_LOOP ( 'NONE', ( #63 ) ) ;
#211 = CARTESIAN_POINT ( 'NONE',  ( 1.352035653406404897E-15, -1.244598961811713919E-16, 0.3872384017536774636 ) ) ;
#212 = ORIENTED_EDGE ( 'NONE', *, *, #215, .T. ) ;
#213 = DIRECTION ( 'NONE',  ( 3.491481338843133355E-15, 0.0000000000000000000, 1.000000000000000000 ) ) ;
#214 = EDGE_LOOP ( 'NONE', ( #93 ) ) ;
#215 = EDGE_CURVE ( 'NONE', #4, #4, #328, .T. ) ;
#216 = VERTEX_POINT ( 'NONE', #84 ) ;
#217 = AXIS2_PLACEMENT_3D ( 'NONE', #273, #198, #251 ) ;
#218 = DIRECTION ( 'NONE',  ( -1.000000000000000000, 0.0000000000000000000, 3.535441866800558623E-15 ) ) ;
#219 = MECHANICAL_CONTEXT ( 'NONE', #250, 'mechanical' ) ;
#220 = DIRECTION ( 'NONE',  ( -1.000000000000000000, 0.0000000000000000000, 3.510007033226452301E-15 ) ) ;
#221 = APPROVAL ( #62, 'UNSPECIFIED' ) ;
#222 = PERSON_AND_ORGANIZATION ( #246, #290 ) ;
#223 = DIRECTION ( 'NONE',  ( 1.000000000000000000, 0.0000000000000000000, -3.469446951953624444E-15 ) ) ;
#224 = CC_DESIGN_APPROVAL ( #340, ( #131 ) ) ;
#225 = EDGE_LOOP ( 'NONE', ( #188 ) ) ;
#226 = CARTESIAN_POINT ( 'NONE',  ( -0.5059999999999998943, 0.0000000000000000000, 1.780242084610694315E-15 ) ) ;
#227 = CARTESIAN_POINT ( 'NONE',  ( -0.4890741737109108311, 0.0000000000000000000, 5.358819045102515055 ) ) ;
#228 = ADVANCED_FACE ( 'NONE', ( #74, #184 ), #2, .T. ) ;
#229 =( NAMED_UNIT ( * ) SI_UNIT ( $, .STERADIAN. ) SOLID_ANGLE_UNIT ( ) );
#230 = CC_DESIGN_DATE_AND_TIME_ASSIGNMENT ( #120, #28, ( #123 ) ) ;
#231 = AXIS2_PLACEMENT_3D ( 'NONE', #349, #11, #45 ) ;
#232 = PRODUCT_DEFINITION_FORMATION_WITH_SPECIFIED_SOURCE ( 'ANY', '', #279, .NOT_KNOWN. ) ;
#233 = EDGE_LOOP ( 'NONE', ( #119 ) ) ;
#234 = ORIENTED_EDGE ( 'NONE', *, *, #159, .F. ) ;
#235 =( NAMED_UNIT ( * ) PLANE_ANGLE_UNIT ( ) SI_UNIT ( $, .RADIAN. ) );
#236 = EDGE_LOOP ( 'NONE', ( #29 ) ) ;
#237 = CIRCLE ( 'NONE', #190, 0.5059999999999998943 ) ;
#238 = AXIS2_PLACEMENT_3D ( 'NONE', #15, #271, #359 ) ;
#239 = CARTESIAN_POINT ( 'NONE',  ( 1.107631959687385918E-15, 0.0000000000000000000, 0.3172384017536775680 ) ) ;
#240 = DIRECTION ( 'NONE',  ( -3.491481338843133355E-15, 0.0000000000000000000, -1.000000000000000000 ) ) ;
#241 = EDGE_LOOP ( 'NONE', ( #167 ) ) ;
#242 = LOCAL_TIME ( 8, 11, 13.00000000000000000, #114 ) ;
#243 = DIRECTION ( 'NONE',  ( 3.491481338843133355E-15, 0.0000000000000000000, 1.000000000000000000 ) ) ;
#244 = ORIENTED_EDGE ( 'NONE', *, *, #295, .F. ) ;
#245 = FACE_OUTER_BOUND ( 'NONE', #280, .T. ) ;
#246 = PERSON ( 'UNSPECIFIED', 'UNSPECIFIED', 'UNSPECIFIED', ('UNSPECIFIED'), ('UNSPECIFIED'), ('UNSPECIFIED') ) ;
#247 = ADVANCED_FACE ( 'NONE', ( #306, #272 ), #255, .T. ) ;
#248 = VERTEX_POINT ( 'NONE', #30 ) ;
#249 = LOCAL_TIME ( 8, 11, 13.00000000000000000, #87 ) ;
#250 = APPLICATION_CONTEXT ( 'configuration controlled 3d designs of mechanical parts and assemblies' ) ;
#251 = DIRECTION ( 'NONE',  ( -1.000000000000000000, 0.0000000000000000000, 3.491481338843133750E-15 ) ) ;
#252 = DIRECTION ( 'NONE',  ( -1.000000000000000000, 0.0000000000000000000, 4.625929269271500311E-15 ) ) ;
#253 = PERSON_AND_ORGANIZATION ( #246, #290 ) ;
#254 = ORIENTED_EDGE ( 'NONE', *, *, #311, .T. ) ;
#255 = CYLINDRICAL_SURFACE ( 'NONE', #6, 0.4549999999999994604 ) ;
#256 = APPLICATION_PROTOCOL_DEFINITION ( 'international standard', 'config_control_design', 1994, #250 ) ;
#257 = COORDINATED_UNIVERSAL_TIME_OFFSET ( 1, 0, .AHEAD. ) ;
#258 = CARTESIAN_POINT ( 'NONE',  ( 1.780655482809997696E-14, 0.0000000000000000000, 5.099999999999999645 ) ) ;
#259 = AXIS2_PLACEMENT_3D ( 'NONE', #35, #330, #332 ) ;
#260 = CARTESIAN_POINT ( 'NONE',  ( 0.0000000000000000000, 0.0000000000000000000, 0.0000000000000000000 ) ) ;
#261 = AXIS2_PLACEMENT_3D ( 'NONE', #86, #115, #64 ) ;
#262 = DIRECTION ( 'NONE',  ( -3.491481338843133355E-15, 0.0000000000000000000, -1.000000000000000000 ) ) ;
#263 = DIRECTION ( 'NONE',  ( -1.000000000000000000, 0.0000000000000000000, 3.491481338843133750E-15 ) ) ;
#264 = EDGE_LOOP ( 'NONE', ( #339 ) ) ;
#265 = FACE_OUTER_BOUND ( 'NONE', #124, .T. ) ;
#266 = AXIS2_PLACEMENT_3D ( 'NONE', #302, #26, #191 ) ;
#267 = FACE_OUTER_BOUND ( 'NONE', #118, .T. ) ;
#268 = EDGE_LOOP ( 'NONE', ( #212 ) ) ;
#269 = PERSON_AND_ORGANIZATION_ROLE ( 'classification_officer' ) ;
#270 = CARTESIAN_POINT ( 'NONE',  ( 3.188297017564080260E-14, 0.0000000000000000000, 9.131645591496960535 ) ) ;
#271 = DIRECTION ( 'NONE',  ( 0.0000000000000000000, 0.0000000000000000000, 1.000000000000000000 ) ) ;
#272 = FACE_OUTER_BOUND ( 'NONE', #225, .T. ) ;
#273 = CARTESIAN_POINT ( 'NONE',  ( 4.731839565957903391E-32, 0.0000000000000000000, 1.355252715606880543E-17 ) ) ;
#274 = CIRCLE ( 'NONE', #354, 0.4549999999999994604 ) ;
#275 = EDGE_LOOP ( 'NONE', ( #170 ) ) ;
#276 = CC_DESIGN_DATE_AND_TIME_ASSIGNMENT ( #17, #169, ( #131 ) ) ;
#277 = CARTESIAN_POINT ( 'NONE',  ( 3.188297017564080260E-14, 0.0000000000000000000, 9.131645591496960535 ) ) ;
#278 = COORDINATED_UNIVERSAL_TIME_OFFSET ( 1, 0, .AHEAD. ) ;
#279 = PRODUCT ( '378084', '378084', '', ( #219 ) ) ;
#280 = EDGE_LOOP ( 'NONE', ( #244 ) ) ;
#281 = CARTESIAN_POINT ( 'NONE',  ( 7.266443061164275313E-16, 0.0000000000000000000, 0.2081192008768386337 ) ) ;
#282 = MANIFOLD_SOLID_BREP ( 'Corps-Déplacer/Copier1[1]', #83 ) ;
#283 = ORIENTED_EDGE ( 'NONE', *, *, #337, .F. ) ;
#284 = CARTESIAN_POINT ( 'NONE',  ( -0.6949999999999993960, 0.0000000000000000000, 0.1791192008768412725 ) ) ;
#285 = EDGE_LOOP ( 'NONE', ( #283 ) ) ;
#286 = UNCERTAINTY_MEASURE_WITH_UNIT (LENGTH_MEASURE( 1.000000000000000082E-05 ), #342, 'distance_accuracy_value', 'NONE');
#287 = EDGE_CURVE ( 'NONE', #42, #42, #208, .T. ) ;
#288 = ORIENTED_EDGE ( 'NONE', *, *, #19, .T. ) ;
#289 = APPROVAL ( #334, 'UNSPECIFIED' ) ;
#290 = ORGANIZATION ( 'UNSPECIFIED', 'UNSPECIFIED', '' ) ;
#291 = EDGE_LOOP ( 'NONE', ( #203 ) ) ;
#292 = CARTESIAN_POINT ( 'NONE',  ( 1.326762908760390423E-13, 0.0000000000000000000, 38.00000000000000000 ) ) ;
#293 = DIRECTION ( 'NONE',  ( -1.000000000000000000, 0.0000000000000000000, 3.535441866800558623E-15 ) ) ;
#294 = CARTESIAN_POINT ( 'NONE',  ( 1.107631959687385918E-15, 0.0000000000000000000, 0.3172384017536775680 ) ) ;
#295 = EDGE_CURVE ( 'NONE', #345, #345, #68, .T. ) ;
#296 = FACE_OUTER_BOUND ( 'NONE', #80, .T. ) ;
#297 = CIRCLE ( 'NONE', #108, 1.499999999999995337 ) ;
#298 = CARTESIAN_POINT ( 'NONE',  ( 2.120153612726048968E-15, 0.0000000000000000000, 0.6072361290146663926 ) ) ;
#299 = EDGE_LOOP ( 'NONE', ( #130 ) ) ;
#300 = CLOSED_SHELL ( 'NONE', ( #197, #92, #8, #97, #104, #113, #138 ) ) ;
#301 = CARTESIAN_POINT ( 'NONE',  ( -0.5059999999999986731, 0.0000000000000000000, 0.3872384017536793510 ) ) ;
#302 = CARTESIAN_POINT ( 'NONE',  ( 1.326762908760390423E-13, 0.0000000000000000000, 38.00000000000000000 ) ) ;
#303 = CARTESIAN_POINT ( 'NONE',  ( 2.444036937190194236E-16, 0.0000000000000000000, 0.07000000000000002054 ) ) ;
#304 = DATE_AND_TIME ( #58, #242 ) ;
#305 = EDGE_LOOP ( 'NONE', ( #186 ) ) ;
#306 = FACE_OUTER_BOUND ( 'NONE', #176, .T. ) ;
#307 = APPLICATION_CONTEXT ( 'configuration controlled 3d designs of mechanical parts and assemblies' ) ;
#308 = APPROVAL_ROLE ( '' ) ;
#309 = TOROIDAL_SURFACE ( 'NONE', #347, 1.454999999999999405, 1.000000000000000000 ) ;
#310 = CC_DESIGN_APPROVAL ( #289, ( #123 ) ) ;
#311 = EDGE_CURVE ( 'NONE', #69, #69, #165, .T. ) ;
#312 = CARTESIAN_POINT ( 'NONE',  ( -0.6949999999999993960, 0.0000000000000000000, 0.2081192008768410762 ) ) ;
#313 = EDGE_LOOP ( 'NONE', ( #356 ) ) ;
#314 = DIRECTION ( 'NONE',  ( -1.000000000000000000, 0.0000000000000000000, 3.574292876325842686E-15 ) ) ;
#315 = CIRCLE ( 'NONE', #47, 1.499999999999995559 ) ;
#316 = DIRECTION ( 'NONE',  ( -3.491481338843133355E-15, 0.0000000000000000000, -1.000000000000000000 ) ) ;
#317 = EDGE_CURVE ( 'NONE', #67, #67, #315, .T. ) ;
#318 = CYLINDRICAL_SURFACE ( 'NONE', #327, 0.5059999999999998943 ) ;
#319 = DIRECTION ( 'NONE',  ( -1.000000000000000000, 0.0000000000000000000, 3.510007033226452696E-15 ) ) ;
#320 = AXIS2_PLACEMENT_3D ( 'NONE', #335, #18, #218 ) ;
#321 = DIRECTION ( 'NONE',  ( -1.000000000000000000, 0.0000000000000000000, 3.535441866800558623E-15 ) ) ;
#322 = ADVANCED_FACE ( 'NONE', ( #105, #55 ), #25, .T. ) ;
#323 = EDGE_LOOP ( 'NONE', ( #234 ) ) ;
#324 = PERSON_AND_ORGANIZATION ( #246, #290 ) ;
#325 = ORIENTED_EDGE ( 'NONE', *, *, #128, .T. ) ;
#326 = DIRECTION ( 'NONE',  ( 3.491481338843133355E-15, 0.0000000000000000000, 1.000000000000000000 ) ) ;
#327 = AXIS2_PLACEMENT_3D ( 'NONE', #49, #182, #263 ) ;
#328 = CIRCLE ( 'NONE', #122, 0.6950000000000000622 ) ;
#329 = FACE_OUTER_BOUND ( 'NONE', #50, .T. ) ;
#330 = DIRECTION ( 'NONE',  ( -3.491481338843133355E-15, 0.0000000000000000000, -1.000000000000000000 ) ) ;
#331 = DIRECTION ( 'NONE',  ( -3.491481338843133355E-15, 0.0000000000000000000, -1.000000000000000000 ) ) ;
#332 = DIRECTION ( 'NONE',  ( -1.000000000000000000, 0.0000000000000000000, 5.782411586589379332E-15 ) ) ;
#333 = SECURITY_CLASSIFICATION_LEVEL ( 'unclassified' ) ;
#334 = APPROVAL_STATUS ( 'not_yet_approved' ) ;
#335 = CARTESIAN_POINT ( 'NONE',  ( 1.352035653406405292E-15, 0.0000000000000000000, 0.3872384017536775747 ) ) ;
#336 = APPROVAL_PERSON_ORGANIZATION ( #253, #340, #31 ) ;
#337 = EDGE_CURVE ( 'NONE', #3, #3, #39, .T. ) ;
#338 = DIRECTION ( 'NONE',  ( 1.000000000000000000, 0.0000000000000000000, -3.510007033226452696E-15 ) ) ;
#339 = ORIENTED_EDGE ( 'NONE', *, *, #317, .T. ) ;
#340 = APPROVAL ( #164, 'UNSPECIFIED' ) ;
#341 = VERTEX_POINT ( 'NONE', #38 ) ;
#342 =( LENGTH_UNIT ( ) NAMED_UNIT ( * ) SI_UNIT ( .MILLI., .METRE. ) );
#343 = ORIENTED_EDGE ( 'NONE', *, *, #287, .T. ) ;
#344 = APPROVAL_PERSON_ORGANIZATION ( #222, #221, #172 ) ;
#345 = VERTEX_POINT ( 'NONE', #149 ) ;
#346 = AXIS2_PLACEMENT_3D ( 'NONE', #303, #61, #94 ) ;
#347 = AXIS2_PLACEMENT_3D ( 'NONE', #258, #44, #5 ) ;
#348 = FACE_OUTER_BOUND ( 'NONE', #291, .T. ) ;
#349 = CARTESIAN_POINT ( 'NONE',  ( 2.365919782978951696E-32, 0.0000000000000000000, 6.776263578034402713E-18 ) ) ;
#350 = EDGE_CURVE ( 'NONE', #341, #341, #59, .T. ) ;
#351 = DIRECTION ( 'NONE',  ( -1.000000000000000000, 0.0000000000000000000, 3.812579068080898917E-15 ) ) ;
#352 = PERSON_AND_ORGANIZATION ( #246, #290 ) ;
#353 = ADVANCED_FACE ( 'NONE', ( #329 ), #85, .F. ) ;
#354 = AXIS2_PLACEMENT_3D ( 'NONE', #181, #262, #351 ) ;
#355 = DIRECTION ( 'NONE',  ( -1.000000000000000000, 0.0000000000000000000, 3.491481338843133355E-15 ) ) ;
#356 = ORIENTED_EDGE ( 'NONE', *, *, #295, .T. ) ;
#357 = FACE_BOUND ( 'NONE', #146, .T. ) ;
#358 = SHAPE_DEFINITION_REPRESENTATION ( #32, #36 ) ;
#359 = DIRECTION ( 'NONE',  ( 1.000000000000000000, 0.0000000000000000000, 0.0000000000000000000 ) ) ;
#360 = DIRECTION ( 'NONE',  ( -3.491481338843133355E-15, 0.0000000000000000000, -1.000000000000000000 ) ) ;
#361 = DIRECTION ( 'NONE',  ( -3.491481338843133355E-15, 0.0000000000000000000, -1.000000000000000000 ) ) ;
#362 = ADVANCED_FACE ( 'NONE', ( #187, #168 ), #102, .F. ) ;
#363 = DIRECTION ( 'NONE',  ( -3.491481338843133355E-15, 0.0000000000000000000, -1.000000000000000000 ) ) ;
ENDSEC;
END-ISO-10303-21;
