ISO-10303-21;
HEADER;
FILE_DESCRIPTION (( 'STEP AP203' ),
    '1' );
FILE_NAME ('378083.step',
    '2021-12-17T07:11:12',
    ( '' ),
    ( '' ),
    'SwSTEP 2.0',
    'SolidWorks 2019',
    '' );
FILE_SCHEMA (( 'CONFIG_CONTROL_DESIGN' ));
ENDSEC;

DATA;
#1 = DIRECTION ( 'NONE',  ( -3.491481338843133355E-15, 0.0000000000000000000, -1.000000000000000000 ) ) ;
#2 = AXIS2_PLACEMENT_3D ( 'NONE', #312, #258, #112 ) ;
#3 = FACE_OUTER_BOUND ( 'NONE', #203, .T. ) ;
#4 = CC_DESIGN_APPROVAL ( #218, ( #100 ) ) ;
#5 = EDGE_CURVE ( 'NONE', #45, #45, #361, .T. ) ;
#6 = PERSON_AND_ORGANIZATION_ROLE ( 'design_supplier' ) ;
#7 = DIRECTION ( 'NONE',  ( -3.491481338843133355E-15, 0.0000000000000000000, -1.000000000000000000 ) ) ;
#8 = CARTESIAN_POINT ( 'NONE',  ( 1.107631959687385523E-15, 0.0000000000000000000, 0.3172384017536774570 ) ) ;
#9 = ORIENTED_EDGE ( 'NONE', *, *, #211, .T. ) ;
#10 = CARTESIAN_POINT ( 'NONE',  ( 0.0000000000000000000, 0.0000000000000000000, 0.0000000000000000000 ) ) ;
#11 = AXIS2_PLACEMENT_3D ( 'NONE', #266, #14, #55 ) ;
#12 = ORIENTED_EDGE ( 'NONE', *, *, #74, .F. ) ;
#13 = EDGE_CURVE ( 'NONE', #270, #270, #213, .T. ) ;
#14 = DIRECTION ( 'NONE',  ( 3.491481338843133355E-15, 0.0000000000000000000, 1.000000000000000000 ) ) ;
#15 = PERSON ( 'UNSPECIFIED', 'UNSPECIFIED', 'UNSPECIFIED', ('UNSPECIFIED'), ('UNSPECIFIED'), ('UNSPECIFIED') ) ;
#16 = DIRECTION ( 'NONE',  ( 3.491481338843133355E-15, 0.0000000000000000000, 1.000000000000000000 ) ) ;
#17 = CONICAL_SURFACE ( 'NONE', #201, 0.4059999999999999165, 1.047197551196600740 ) ;
#18 = APPROVAL ( #206, 'UNSPECIFIED' ) ;
#19 = CONICAL_SURFACE ( 'NONE', #72, 1.499999999999995559, 0.2617993877991427465 ) ;
#20 = PRODUCT_DEFINITION_FORMATION_WITH_SPECIFIED_SOURCE ( 'ANY', '', #149, .NOT_KNOWN. ) ;
#21 = DIRECTION ( 'NONE',  ( -1.000000000000000000, 0.0000000000000000000, 5.782411586589379332E-15 ) ) ;
#22 = LOCAL_TIME ( 8, 11, 12.00000000000000000, #157 ) ;
#23 = VERTEX_POINT ( 'NONE', #246 ) ;
#24 = ORIENTED_EDGE ( 'NONE', *, *, #211, .F. ) ;
#25 =( LENGTH_UNIT ( ) NAMED_UNIT ( * ) SI_UNIT ( .MILLI., .METRE. ) );
#26 = CARTESIAN_POINT ( 'NONE',  ( -0.3890741737109127407, 0.0000000000000000000, 4.758819045102514522 ) ) ;
#27 = DIRECTION ( 'NONE',  ( -1.000000000000000000, 0.0000000000000000000, 3.491481338843133355E-15 ) ) ;
#28 = VERTEX_POINT ( 'NONE', #108 ) ;
#29 = ORIENTED_EDGE ( 'NONE', *, *, #281, .F. ) ;
#30 = FACE_OUTER_BOUND ( 'NONE', #231, .T. ) ;
#31 = ORIENTED_EDGE ( 'NONE', *, *, #79, .F. ) ;
#32 = APPLICATION_PROTOCOL_DEFINITION ( 'international standard', 'config_control_design', 1994, #216 ) ;
#33 = CIRCLE ( 'NONE', #89, 0.4059999999999999165 ) ;
#34 = ORIENTED_EDGE ( 'NONE', *, *, #5, .T. ) ;
#35 = DIRECTION ( 'NONE',  ( -3.491481338843133355E-15, 0.0000000000000000000, -1.000000000000000000 ) ) ;
#36 = CC_DESIGN_PERSON_AND_ORGANIZATION_ASSIGNMENT ( #114, #178, ( #100 ) ) ;
#37 = ORIENTED_EDGE ( 'NONE', *, *, #5, .F. ) ;
#38 = FACE_OUTER_BOUND ( 'NONE', #276, .T. ) ;
#39 = DIRECTION ( 'NONE',  ( -1.000000000000000000, 0.0000000000000000000, 3.491481338843133355E-15 ) ) ;
#40 = PRODUCT_RELATED_PRODUCT_CATEGORY ( 'detail', '', ( #149 ) ) ;
#41 = DIRECTION ( 'NONE',  ( -3.491481338843133355E-15, 0.0000000000000000000, -1.000000000000000000 ) ) ;
#42 = AXIS2_PLACEMENT_3D ( 'NONE', #343, #35, #54 ) ;
#43 =( GEOMETRIC_REPRESENTATION_CONTEXT ( 3 ) GLOBAL_UNCERTAINTY_ASSIGNED_CONTEXT ( ( #145 ) ) GLOBAL_UNIT_ASSIGNED_CONTEXT ( ( #25, #51, #107 ) ) REPRESENTATION_CONTEXT ( 'NONE', 'WORKASPACE' ) );
#44 = DATE_TIME_ROLE ( 'classification_date' ) ;
#45 = VERTEX_POINT ( 'NONE', #161 ) ;
#46 = EDGE_CURVE ( 'NONE', #356, #356, #58, .T. ) ;
#47 = FACE_OUTER_BOUND ( 'NONE', #234, .T. ) ;
#48 = APPROVAL_PERSON_ORGANIZATION ( #238, #335, #247 ) ;
#49 = CARTESIAN_POINT ( 'NONE',  ( -0.4059999999999985842, 0.0000000000000000000, 0.3872384017536788514 ) ) ;
#50 = CONICAL_SURFACE ( 'NONE', #323, 0.5949999999999999734, 1.047197551196600074 ) ;
#51 =( NAMED_UNIT ( * ) PLANE_ANGLE_UNIT ( ) SI_UNIT ( $, .RADIAN. ) );
#52 = FACE_BOUND ( 'NONE', #113, .T. ) ;
#53 = DIRECTION ( 'NONE',  ( 1.000000000000000000, 0.0000000000000000000, -3.507712910982514647E-15 ) ) ;
#54 = DIRECTION ( 'NONE',  ( -1.000000000000000000, 0.0000000000000000000, 4.625929269271500311E-15 ) ) ;
#55 = DIRECTION ( 'NONE',  ( 1.000000000000000000, 0.0000000000000000000, -3.491481338843133355E-15 ) ) ;
#56 = DIRECTION ( 'NONE',  ( 0.0000000000000000000, 0.0000000000000000000, 1.000000000000000000 ) ) ;
#57 = DIRECTION ( 'NONE',  ( -3.491481338843133355E-15, 0.0000000000000000000, -1.000000000000000000 ) ) ;
#58 = CIRCLE ( 'NONE', #261, 0.4059999999999999165 ) ;
#59 = EDGE_LOOP ( 'NONE', ( #253 ) ) ;
#60 = AXIS2_PLACEMENT_3D ( 'NONE', #77, #336, #363 ) ;
#61 = DATE_AND_TIME ( #92, #168 ) ;
#62 = ORIENTED_EDGE ( 'NONE', *, *, #327, .F. ) ;
#63 = DATE_TIME_ROLE ( 'creation_date' ) ;
#64 = FACE_OUTER_BOUND ( 'NONE', #227, .T. ) ;
#65 = FACE_OUTER_BOUND ( 'NONE', #59, .T. ) ;
#66 = PERSON_AND_ORGANIZATION ( #15, #147 ) ;
#67 = AXIS2_PLACEMENT_3D ( 'NONE', #130, #151, #242 ) ;
#68 = AXIS2_PLACEMENT_3D ( 'NONE', #99, #76, #106 ) ;
#69 = CC_DESIGN_PERSON_AND_ORGANIZATION_ASSIGNMENT ( #317, #170, ( #210 ) ) ;
#70 = CARTESIAN_POINT ( 'NONE',  ( 0.0000000000000000000, 0.0000000000000000000, 0.0000000000000000000 ) ) ;
#71 = AXIS2_PLACEMENT_3D ( 'NONE', #199, #7, #314 ) ;
#72 = AXIS2_PLACEMENT_3D ( 'NONE', #264, #16, #239 ) ;
#73 = FACE_BOUND ( 'NONE', #225, .T. ) ;
#74 = EDGE_CURVE ( 'NONE', #28, #28, #188, .T. ) ;
#75 = DIRECTION ( 'NONE',  ( -3.491481338843133355E-15, 0.0000000000000000000, -1.000000000000000000 ) ) ;
#76 = DIRECTION ( 'NONE',  ( -3.491481338843133355E-15, 0.0000000000000000000, -1.000000000000000000 ) ) ;
#77 = CARTESIAN_POINT ( 'NONE',  ( 1.326762908760390423E-13, 0.0000000000000000000, 38.00000000000000000 ) ) ;
#78 = TOROIDAL_SURFACE ( 'NONE', #109, 1.354999999999999538, 1.000000000000000000 ) ;
#79 = EDGE_CURVE ( 'NONE', #244, #244, #126, .T. ) ;
#80 = DIRECTION ( 'NONE',  ( 3.491481338843133355E-15, 0.0000000000000000000, 1.000000000000000000 ) ) ;
#81 = DIRECTION ( 'NONE',  ( -3.491481338843133355E-15, 0.0000000000000000000, -1.000000000000000000 ) ) ;
#82 = AXIS2_PLACEMENT_3D ( 'NONE', #212, #75, #250 ) ;
#83 = APPROVAL_DATE_TIME ( #190, #335 ) ;
#84 = CC_DESIGN_APPROVAL ( #335, ( #210 ) ) ;
#85 = DIRECTION ( 'NONE',  ( -3.491481338843133355E-15, 0.0000000000000000000, -1.000000000000000000 ) ) ;
#86 = DIRECTION ( 'NONE',  ( 1.000000000000000000, 0.0000000000000000000, 0.0000000000000000000 ) ) ;
#87 = DIRECTION ( 'NONE',  ( 1.000000000000000000, 0.0000000000000000000, -3.491481338843133355E-15 ) ) ;
#88 = CC_DESIGN_DATE_AND_TIME_ASSIGNMENT ( #342, #63, ( #100 ) ) ;
#89 = AXIS2_PLACEMENT_3D ( 'NONE', #328, #196, #303 ) ;
#90 = APPROVAL_DATE_TIME ( #61, #218 ) ;
#91 = EDGE_LOOP ( 'NONE', ( #62 ) ) ;
#92 = CALENDAR_DATE ( 2021, 17, 12 ) ;
#93 = CARTESIAN_POINT ( 'NONE',  ( 0.0000000000000000000, 0.0000000000000000000, 0.0000000000000000000 ) ) ;
#94 = EDGE_LOOP ( 'NONE', ( #111 ) ) ;
#95 = APPROVAL_ROLE ( '' ) ;
#96 = AXIS2_PLACEMENT_3D ( 'NONE', #70, #97, #39 ) ;
#97 = DIRECTION ( 'NONE',  ( -3.491481338843133355E-15, 0.0000000000000000000, -1.000000000000000000 ) ) ;
#98 = PRODUCT_DEFINITION_SHAPE ( 'NONE', 'NONE',  #100 ) ;
#99 = CARTESIAN_POINT ( 'NONE',  ( 3.109111994735906905E-14, 0.0000000000000000000, 8.904850672253855848 ) ) ;
#100 = PRODUCT_DEFINITION ( 'UNKNOWN', '', #20, #300 ) ;
#101 = AXIS2_PLACEMENT_3D ( 'NONE', #285, #80, #87 ) ;
#102 = CIRCLE ( 'NONE', #193, 0.3890741737109293386 ) ;
#103 = VERTEX_POINT ( 'NONE', #134 ) ;
#104 = CC_DESIGN_PERSON_AND_ORGANIZATION_ASSIGNMENT ( #204, #6, ( #20 ) ) ;
#105 = DIRECTION ( 'NONE',  ( -3.491481338843133355E-15, 0.0000000000000000000, -1.000000000000000000 ) ) ;
#106 = DIRECTION ( 'NONE',  ( -1.000000000000000000, 0.0000000000000000000, 3.469446951953624444E-15 ) ) ;
#107 =( NAMED_UNIT ( * ) SI_UNIT ( $, .STERADIAN. ) SOLID_ANGLE_UNIT ( ) );
#108 = CARTESIAN_POINT ( 'NONE',  ( -0.3549999999999837730, 0.0000000000000000000, 4.500000000000000888 ) ) ;
#109 = AXIS2_PLACEMENT_3D ( 'NONE', #139, #57, #259 ) ;
#110 = AXIS2_PLACEMENT_3D ( 'NONE', #93, #301, #148 ) ;
#111 = ORIENTED_EDGE ( 'NONE', *, *, #281, .T. ) ;
#112 = DIRECTION ( 'NONE',  ( 1.000000000000000000, 0.0000000000000000000, -3.491481338843133355E-15 ) ) ;
#113 = EDGE_LOOP ( 'NONE', ( #287 ) ) ;
#114 = PERSON_AND_ORGANIZATION ( #15, #147 ) ;
#115 = ORIENTED_EDGE ( 'NONE', *, *, #177, .F. ) ;
#116 = CIRCLE ( 'NONE', #133, 0.4059999999999999720 ) ;
#117 = CARTESIAN_POINT ( 'NONE',  ( 0.0000000000000000000, 0.0000000000000000000, 0.0000000000000000000 ) ) ;
#118 = FACE_OUTER_BOUND ( 'NONE', #296, .T. ) ;
#119 = ORIENTED_EDGE ( 'NONE', *, *, #357, .F. ) ;
#120 = EDGE_LOOP ( 'NONE', ( #29 ) ) ;
#121 = COORDINATED_UNIVERSAL_TIME_OFFSET ( 1, 0, .AHEAD. ) ;
#122 = ADVANCED_FACE ( 'NONE', ( #137 ), #209, .F. ) ;
#123 = DIRECTION ( 'NONE',  ( -3.491481338843133355E-15, 0.0000000000000000000, -1.000000000000000000 ) ) ;
#124 = CALENDAR_DATE ( 2021, 17, 12 ) ;
#125 = DIRECTION ( 'NONE',  ( -1.000000000000000000, 0.0000000000000000000, 3.491481338843133355E-15 ) ) ;
#126 = CIRCLE ( 'NONE', #82, 0.4059999999999999165 ) ;
#127 = LOCAL_TIME ( 8, 11, 12.00000000000000000, #121 ) ;
#128 = ADVANCED_FACE ( 'NONE', ( #222, #339 ), #340, .T. ) ;
#129 = FACE_OUTER_BOUND ( 'NONE', #91, .T. ) ;
#130 = CARTESIAN_POINT ( 'NONE',  ( 7.266443061164282216E-16, 0.0000000000000000000, 0.2081192008768388280 ) ) ;
#131 = DIRECTION ( 'NONE',  ( -3.491481338843133355E-15, 0.0000000000000000000, -1.000000000000000000 ) ) ;
#132 = CIRCLE ( 'NONE', #42, 1.499999999999995337 ) ;
#133 = AXIS2_PLACEMENT_3D ( 'NONE', #311, #325, #254 ) ;
#134 = CARTESIAN_POINT ( 'NONE',  ( -0.3549999999999973177, 0.0000000000000000000, 0.6072361290146676138 ) ) ;
#135 = ADVANCED_FACE ( 'NONE', ( #140, #195 ), #337, .T. ) ;
#136 = VERTEX_POINT ( 'NONE', #26 ) ;
#137 = FACE_OUTER_BOUND ( 'NONE', #94, .T. ) ;
#138 = ADVANCED_FACE ( 'NONE', ( #64 ), #142, .T. ) ;
#139 = CARTESIAN_POINT ( 'NONE',  ( 1.571166602479409694E-14, 0.0000000000000000000, 4.499999999999999112 ) ) ;
#140 = FACE_OUTER_BOUND ( 'NONE', #345, .T. ) ;
#141 = APPROVAL_ROLE ( '' ) ;
#142 = PLANE ( 'NONE',  #101 ) ;
#143 = FACE_OUTER_BOUND ( 'NONE', #255, .T. ) ;
#144 = FACE_OUTER_BOUND ( 'NONE', #229, .T. ) ;
#145 = UNCERTAINTY_MEASURE_WITH_UNIT (LENGTH_MEASURE( 1.000000000000000082E-05 ), #25, 'distance_accuracy_value', 'NONE');
#146 = EDGE_LOOP ( 'NONE', ( #174 ) ) ;
#147 = ORGANIZATION ( 'UNSPECIFIED', 'UNSPECIFIED', '' ) ;
#148 = DIRECTION ( 'NONE',  ( -1.000000000000000000, 0.0000000000000000000, 3.491481338843133355E-15 ) ) ;
#149 = PRODUCT ( '378083', '378083', '', ( #348 ) ) ;
#150 = CC_DESIGN_PERSON_AND_ORGANIZATION_ASSIGNMENT ( #320, #257, ( #20 ) ) ;
#151 = DIRECTION ( 'NONE',  ( -3.491481338843133355E-15, 0.0000000000000000000, -1.000000000000000000 ) ) ;
#152 = ORIENTED_EDGE ( 'NONE', *, *, #327, .T. ) ;
#153 = FACE_BOUND ( 'NONE', #319, .T. ) ;
#154 = CARTESIAN_POINT ( 'NONE',  ( -0.5949999999999993072, 0.0000000000000000000, 0.2081192008768409096 ) ) ;
#155 = ADVANCED_FACE ( 'NONE', ( #30, #318 ), #78, .F. ) ;
#156 = VERTEX_POINT ( 'NONE', #326 ) ;
#157 = COORDINATED_UNIVERSAL_TIME_OFFSET ( 1, 0, .AHEAD. ) ;
#158 = LOCAL_TIME ( 8, 11, 12.00000000000000000, #226 ) ;
#159 = CARTESIAN_POINT ( 'NONE',  ( -0.4059999999999999165, 0.0000000000000000000, 1.424317687148346182E-15 ) ) ;
#160 = DIRECTION ( 'NONE',  ( -1.000000000000000000, 0.0000000000000000000, 3.471583310914177470E-15 ) ) ;
#161 = CARTESIAN_POINT ( 'NONE',  ( -0.5949999999999993072, 0.0000000000000000000, 0.1791192008768408561 ) ) ;
#162 = SHAPE_DEFINITION_REPRESENTATION ( #98, #315 ) ;
#163 = ORIENTED_EDGE ( 'NONE', *, *, #352, .F. ) ;
#164 = EDGE_CURVE ( 'NONE', #103, #103, #307, .T. ) ;
#165 = DATE_AND_TIME ( #297, #158 ) ;
#166 = AXIS2_PLACEMENT_3D ( 'NONE', #308, #256, #171 ) ;
#167 = EDGE_LOOP ( 'NONE', ( #152 ) ) ;
#168 = LOCAL_TIME ( 8, 11, 12.00000000000000000, #346 ) ;
#169 = ORIENTED_EDGE ( 'NONE', *, *, #46, .T. ) ;
#170 = PERSON_AND_ORGANIZATION_ROLE ( 'classification_officer' ) ;
#171 = DIRECTION ( 'NONE',  ( -1.000000000000000000, 0.0000000000000000000, 3.359499689391709274E-15 ) ) ;
#172 = APPROVAL_DATE_TIME ( #165, #18 ) ;
#173 = DIRECTION ( 'NONE',  ( -1.000000000000000000, 0.0000000000000000000, 3.471583310914177076E-15 ) ) ;
#174 = ORIENTED_EDGE ( 'NONE', *, *, #74, .T. ) ;
#175 = DIRECTION ( 'NONE',  ( -3.491481338843133355E-15, 0.0000000000000000000, -1.000000000000000000 ) ) ;
#176 = EDGE_LOOP ( 'NONE', ( #9 ) ) ;
#177 = EDGE_CURVE ( 'NONE', #217, #217, #192, .T. ) ;
#178 = PERSON_AND_ORGANIZATION_ROLE ( 'creator' ) ;
#179 = DIRECTION ( 'NONE',  ( -3.491481338843133355E-15, 0.0000000000000000000, -1.000000000000000000 ) ) ;
#180 = CYLINDRICAL_SURFACE ( 'NONE', #96, 1.499999999999995337 ) ;
#181 = FACE_OUTER_BOUND ( 'NONE', #176, .T. ) ;
#182 = ADVANCED_FACE ( 'NONE', ( #143, #52 ), #17, .T. ) ;
#183 = CYLINDRICAL_SURFACE ( 'NONE', #110, 0.4059999999999999165 ) ;
#184 = CIRCLE ( 'NONE', #362, 1.199999999999995293 ) ;
#185 = CARTESIAN_POINT ( 'NONE',  ( 1.661532789090672592E-14, 0.0000000000000000000, 4.758819045102512746 ) ) ;
#186 = CYLINDRICAL_SURFACE ( 'NONE', #299, 0.4059999999999999165 ) ;
#187 = DIRECTION ( 'NONE',  ( 3.491481338843133355E-15, 0.0000000000000000000, 1.000000000000000000 ) ) ;
#188 = CIRCLE ( 'NONE', #274, 0.3549999999999994826 ) ;
#189 = APPROVAL_PERSON_ORGANIZATION ( #66, #218, #141 ) ;
#190 = DATE_AND_TIME ( #359, #22 ) ;
#191 = FACE_OUTER_BOUND ( 'NONE', #290, .T. ) ;
#192 = CIRCLE ( 'NONE', #243, 0.4059999999999999720 ) ;
#193 = AXIS2_PLACEMENT_3D ( 'NONE', #185, #131, #280 ) ;
#194 = DIRECTION ( 'NONE',  ( -3.491481338843133355E-15, 0.0000000000000000000, -1.000000000000000000 ) ) ;
#195 = FACE_BOUND ( 'NONE', #167, .T. ) ;
#196 = DIRECTION ( 'NONE',  ( -3.491481338843133355E-15, 0.0000000000000000000, -1.000000000000000000 ) ) ;
#197 = CC_DESIGN_PERSON_AND_ORGANIZATION_ASSIGNMENT ( #294, #265, ( #149 ) ) ;
#198 = MANIFOLD_SOLID_BREP ( 'Corps-Déplacer/Copier1[1]', #344 ) ;
#199 = CARTESIAN_POINT ( 'NONE',  ( 0.0000000000000000000, 0.0000000000000000000, 0.0000000000000000000 ) ) ;
#200 = PERSON_AND_ORGANIZATION ( #15, #147 ) ;
#201 = AXIS2_PLACEMENT_3D ( 'NONE', #8, #228, #160 ) ;
#202 = AXIS2_PLACEMENT_3D ( 'NONE', #117, #56, #86 ) ;
#203 = EDGE_LOOP ( 'NONE', ( #286 ) ) ;
#204 = PERSON_AND_ORGANIZATION ( #15, #147 ) ;
#205 = ORIENTED_EDGE ( 'NONE', *, *, #46, .F. ) ;
#206 = APPROVAL_STATUS ( 'not_yet_approved' ) ;
#207 = FACE_OUTER_BOUND ( 'NONE', #283, .T. ) ;
#208 = ORIENTED_EDGE ( 'NONE', *, *, #164, .F. ) ;
#209 = PLANE ( 'NONE',  #2 ) ;
#210 = SECURITY_CLASSIFICATION ( '', '', #347 ) ;
#211 = EDGE_CURVE ( 'NONE', #156, #156, #132, .T. ) ;
#212 = CARTESIAN_POINT ( 'NONE',  ( 1.107631959687385523E-15, 0.0000000000000000000, 0.3172384017536774570 ) ) ;
#213 = CIRCLE ( 'NONE', #67, 0.5950000000000000844 ) ;
#214 = FACE_OUTER_BOUND ( 'NONE', #120, .T. ) ;
#215 = AXIS2_PLACEMENT_3D ( 'NONE', #10, #175, #353 ) ;
#216 = APPLICATION_CONTEXT ( 'configuration controlled 3d designs of mechanical parts and assemblies' ) ;
#217 = VERTEX_POINT ( 'NONE', #49 ) ;
#218 = APPROVAL ( #263, 'UNSPECIFIED' ) ;
#219 = PLANE ( 'NONE',  #60 ) ;
#220 = ADVANCED_FACE ( 'NONE', ( #191, #144 ), #248, .F. ) ;
#221 = CARTESIAN_POINT ( 'NONE',  ( 1.352035653406404897E-15, 0.0000000000000000000, 0.3872384017536774636 ) ) ;
#222 = FACE_OUTER_BOUND ( 'NONE', #260, .T. ) ;
#223 = ADVANCED_FACE ( 'NONE', ( #3, #181 ), #180, .T. ) ;
#224 = CARTESIAN_POINT ( 'NONE',  ( 0.0000000000000000000, 0.0000000000000000000, 0.0000000000000000000 ) ) ;
#225 = EDGE_LOOP ( 'NONE', ( #205 ) ) ;
#226 = COORDINATED_UNIVERSAL_TIME_OFFSET ( 1, 0, .AHEAD. ) ;
#227 = EDGE_LOOP ( 'NONE', ( #115 ) ) ;
#228 = DIRECTION ( 'NONE',  ( -3.491481338843133355E-15, 0.0000000000000000000, -1.000000000000000000 ) ) ;
#229 = EDGE_LOOP ( 'NONE', ( #316 ) ) ;
#230 = APPROVAL_PERSON_ORGANIZATION ( #200, #18, #95 ) ;
#231 = EDGE_LOOP ( 'NONE', ( #12 ) ) ;
#232 = ADVANCED_FACE ( 'NONE', ( #153, #65 ), #19, .T. ) ;
#233 = EDGE_LOOP ( 'NONE', ( #169 ) ) ;
#234 = EDGE_LOOP ( 'NONE', ( #34 ) ) ;
#235 = CALENDAR_DATE ( 2021, 17, 12 ) ;
#236 = ADVANCED_FACE ( 'NONE', ( #351, #268 ), #240, .T. ) ;
#237 = DIRECTION ( 'NONE',  ( -1.000000000000000000, 0.0000000000000000000, 3.504963919672967600E-15 ) ) ;
#238 = PERSON_AND_ORGANIZATION ( #15, #147 ) ;
#239 = DIRECTION ( 'NONE',  ( 1.000000000000000000, 0.0000000000000000000, -3.469446951953624444E-15 ) ) ;
#240 = CYLINDRICAL_SURFACE ( 'NONE', #215, 0.3549999999999994271 ) ;
#241 = CARTESIAN_POINT ( 'NONE',  ( 6.253913472899771689E-16, 0.0000000000000000000, 0.1791192008768387744 ) ) ;
#242 = DIRECTION ( 'NONE',  ( -1.000000000000000000, 0.0000000000000000000, 3.507712910982513858E-15 ) ) ;
#243 = AXIS2_PLACEMENT_3D ( 'NONE', #221, #1, #173 ) ;
#244 = VERTEX_POINT ( 'NONE', #272 ) ;
#245 = LOCAL_TIME ( 8, 11, 12.00000000000000000, #288 ) ;
#246 = CARTESIAN_POINT ( 'NONE',  ( -1.499999999999964473, 0.0000000000000000000, 8.904850672253861177 ) ) ;
#247 = APPROVAL_ROLE ( '' ) ;
#248 = TOROIDAL_SURFACE ( 'NONE', #249, 0.8549999999999994271, 0.5000000000000000000 ) ;
#249 = AXIS2_PLACEMENT_3D ( 'NONE', #338, #85, #125 ) ;
#250 = DIRECTION ( 'NONE',  ( -1.000000000000000000, 0.0000000000000000000, 3.471583310914177470E-15 ) ) ;
#251 = APPLICATION_CONTEXT ( 'configuration controlled 3d designs of mechanical parts and assemblies' ) ;
#252 = APPROVAL_STATUS ( 'not_yet_approved' ) ;
#253 = ORIENTED_EDGE ( 'NONE', *, *, #310, .T. ) ;
#254 = DIRECTION ( 'NONE',  ( -1.000000000000000000, 0.0000000000000000000, 3.471583310914177076E-15 ) ) ;
#255 = EDGE_LOOP ( 'NONE', ( #293 ) ) ;
#256 = DIRECTION ( 'NONE',  ( -3.491481338843133355E-15, 0.0000000000000000000, -1.000000000000000000 ) ) ;
#257 = PERSON_AND_ORGANIZATION_ROLE ( 'creator' ) ;
#258 = DIRECTION ( 'NONE',  ( 3.491481338843133355E-15, 0.0000000000000000000, 1.000000000000000000 ) ) ;
#259 = DIRECTION ( 'NONE',  ( -1.000000000000000000, 0.0000000000000000000, 3.491481338843133355E-15 ) ) ;
#260 = EDGE_LOOP ( 'NONE', ( #37 ) ) ;
#261 = AXIS2_PLACEMENT_3D ( 'NONE', #269, #123, #237 ) ;
#262 = EDGE_LOOP ( 'NONE', ( #322 ) ) ;
#263 = APPROVAL_STATUS ( 'not_yet_approved' ) ;
#264 = CARTESIAN_POINT ( 'NONE',  ( 3.109111994735906905E-14, 0.0000000000000000000, 8.904850672253855848 ) ) ;
#265 = PERSON_AND_ORGANIZATION_ROLE ( 'design_owner' ) ;
#266 = CARTESIAN_POINT ( 'NONE',  ( 1.352035653406404897E-15, -5.170501434127482582E-17, 0.3872384017536774636 ) ) ;
#267 = ADVANCED_FACE ( 'NONE', ( #118, #38 ), #183, .T. ) ;
#268 = FACE_OUTER_BOUND ( 'NONE', #146, .T. ) ;
#269 = CARTESIAN_POINT ( 'NONE',  ( 2.444036937190195222E-16, 0.0000000000000000000, 0.07000000000000004829 ) ) ;
#270 = VERTEX_POINT ( 'NONE', #154 ) ;
#271 = ADVANCED_FACE ( 'NONE', ( #207 ), #295, .F. ) ;
#272 = CARTESIAN_POINT ( 'NONE',  ( -0.4059999999999988063, 0.0000000000000000000, 0.3172384017536788448 ) ) ;
#273 = CARTESIAN_POINT ( 'NONE',  ( 6.253913472899771689E-16, 0.0000000000000000000, 0.1791192008768387744 ) ) ;
#274 = AXIS2_PLACEMENT_3D ( 'NONE', #350, #41, #354 ) ;
#275 = VERTEX_POINT ( 'NONE', #159 ) ;
#276 = EDGE_LOOP ( 'NONE', ( #341 ) ) ;
#277 = ADVANCED_FACE ( 'NONE', ( #129 ), #219, .F. ) ;
#278 = VERTEX_POINT ( 'NONE', #333 ) ;
#279 = CARTESIAN_POINT ( 'NONE',  ( 1.326762908760390423E-13, 0.0000000000000000000, 38.00000000000000000 ) ) ;
#280 = DIRECTION ( 'NONE',  ( -1.000000000000000000, 0.0000000000000000000, 4.458593227690449510E-15 ) ) ;
#281 = EDGE_CURVE ( 'NONE', #275, #275, #33, .T. ) ;
#282 = ORIENTED_EDGE ( 'NONE', *, *, #13, .T. ) ;
#283 = EDGE_LOOP ( 'NONE', ( #304 ) ) ;
#284 = EDGE_LOOP ( 'NONE', ( #282 ) ) ;
#285 = CARTESIAN_POINT ( 'NONE',  ( 1.352035653406404897E-15, -5.170501434127482582E-17, 0.3872384017536774636 ) ) ;
#286 = ORIENTED_EDGE ( 'NONE', *, *, #310, .F. ) ;
#287 = ORIENTED_EDGE ( 'NONE', *, *, #79, .T. ) ;
#288 = COORDINATED_UNIVERSAL_TIME_OFFSET ( 1, 0, .AHEAD. ) ;
#289 = CC_DESIGN_DATE_AND_TIME_ASSIGNMENT ( #302, #44, ( #210 ) ) ;
#290 = EDGE_LOOP ( 'NONE', ( #163 ) ) ;
#291 = DIRECTION ( 'NONE',  ( -1.000000000000000000, 0.0000000000000000000, 5.782411586589379332E-15 ) ) ;
#292 = EDGE_LOOP ( 'NONE', ( #208 ) ) ;
#293 = ORIENTED_EDGE ( 'NONE', *, *, #13, .F. ) ;
#294 = PERSON_AND_ORGANIZATION ( #15, #147 ) ;
#295 = PLANE ( 'NONE',  #11 ) ;
#296 = EDGE_LOOP ( 'NONE', ( #31 ) ) ;
#297 = CALENDAR_DATE ( 2021, 17, 12 ) ;
#298 = DIRECTION ( 'NONE',  ( -1.000000000000000000, 0.0000000000000000000, 3.507712910982514647E-15 ) ) ;
#299 = AXIS2_PLACEMENT_3D ( 'NONE', #224, #81, #27 ) ;
#300 = DESIGN_CONTEXT ( 'detailed design', #216, 'design' ) ;
#301 = DIRECTION ( 'NONE',  ( -3.491481338843133355E-15, 0.0000000000000000000, -1.000000000000000000 ) ) ;
#302 = DATE_AND_TIME ( #124, #245 ) ;
#303 = DIRECTION ( 'NONE',  ( -1.000000000000000000, 0.0000000000000000000, 3.491481338843133355E-15 ) ) ;
#304 = ORIENTED_EDGE ( 'NONE', *, *, #352, .T. ) ;
#305 = CARTESIAN_POINT ( 'NONE',  ( -0.4059999999999996390, 0.0000000000000000000, 0.07000000000000147771 ) ) ;
#306 = CARTESIAN_POINT ( 'NONE',  ( -1.199999999999862732, 0.0000000000000000000, 38.00000000000000711 ) ) ;
#307 = CIRCLE ( 'NONE', #166, 0.3549999999999994271 ) ;
#308 = CARTESIAN_POINT ( 'NONE',  ( 2.120153612726048968E-15, 0.0000000000000000000, 0.6072361290146663926 ) ) ;
#309 = CIRCLE ( 'NONE', #68, 1.499999999999995559 ) ;
#310 = EDGE_CURVE ( 'NONE', #23, #23, #309, .T. ) ;
#311 = CARTESIAN_POINT ( 'NONE',  ( 1.352035653406404897E-15, 0.0000000000000000000, 0.3872384017536774636 ) ) ;
#312 = CARTESIAN_POINT ( 'NONE',  ( 1.182959891489475848E-32, 0.0000000000000000000, 3.388131789017201356E-18 ) ) ;
#313 = FACE_OUTER_BOUND ( 'NONE', #233, .T. ) ;
#314 = DIRECTION ( 'NONE',  ( -1.000000000000000000, 0.0000000000000000000, 3.491481338843133355E-15 ) ) ;
#315 = ADVANCED_BREP_SHAPE_REPRESENTATION ( '378083', ( #198, #332, #202 ), #43 ) ;
#316 = ORIENTED_EDGE ( 'NONE', *, *, #164, .T. ) ;
#317 = PERSON_AND_ORGANIZATION ( #15, #147 ) ;
#318 = FACE_OUTER_BOUND ( 'NONE', #262, .T. ) ;
#319 = EDGE_LOOP ( 'NONE', ( #119 ) ) ;
#320 = PERSON_AND_ORGANIZATION ( #15, #147 ) ;
#321 = ADVANCED_FACE ( 'NONE', ( #73, #47 ), #50, .T. ) ;
#322 = ORIENTED_EDGE ( 'NONE', *, *, #357, .T. ) ;
#323 = AXIS2_PLACEMENT_3D ( 'NONE', #241, #187, #53 ) ;
#324 = ADVANCED_FACE ( 'NONE', ( #214, #313 ), #186, .T. ) ;
#325 = DIRECTION ( 'NONE',  ( -3.491481338843133355E-15, 0.0000000000000000000, -1.000000000000000000 ) ) ;
#326 = CARTESIAN_POINT ( 'NONE',  ( -1.499999999999863665, 0.0000000000000000000, 37.70000000000000284 ) ) ;
#327 = EDGE_CURVE ( 'NONE', #358, #358, #184, .T. ) ;
#328 = CARTESIAN_POINT ( 'NONE',  ( 2.365919782978951696E-32, 0.0000000000000000000, 6.776263578034402713E-18 ) ) ;
#329 = CLOSED_SHELL ( 'NONE', ( #122, #324, #321, #128, #182, #267, #138 ) ) ;
#330 = AXIS2_PLACEMENT_3D ( 'NONE', #334, #105, #291 ) ;
#331 = CC_DESIGN_SECURITY_CLASSIFICATION ( #210, ( #20 ) ) ;
#332 = MANIFOLD_SOLID_BREP ( 'Corps-Déplacer/Copier1[2]', #329 ) ;
#333 = CARTESIAN_POINT ( 'NONE',  ( -0.4059999999999985842, 0.0000000000000000000, 0.3872384017536788514 ) ) ;
#334 = CARTESIAN_POINT ( 'NONE',  ( 1.326762908760390423E-13, 0.0000000000000000000, 38.00000000000000000 ) ) ;
#335 = APPROVAL ( #252, 'UNSPECIFIED' ) ;
#336 = DIRECTION ( 'NONE',  ( -3.491481338843133355E-15, 0.0000000000000000000, -1.000000000000000000 ) ) ;
#337 = CONICAL_SURFACE ( 'NONE', #330, 1.199999999999995293, 0.7853981633974453924 ) ;
#338 = CARTESIAN_POINT ( 'NONE',  ( 2.120153612726048968E-15, 0.0000000000000000000, 0.6072361290146663926 ) ) ;
#339 = FACE_OUTER_BOUND ( 'NONE', #284, .T. ) ;
#340 = CYLINDRICAL_SURFACE ( 'NONE', #71, 0.5950000000000000844 ) ;
#341 = ORIENTED_EDGE ( 'NONE', *, *, #177, .T. ) ;
#342 = DATE_AND_TIME ( #235, #127 ) ;
#343 = CARTESIAN_POINT ( 'NONE',  ( 1.316288464743861212E-13, 0.0000000000000000000, 37.69999999999999574 ) ) ;
#344 = CLOSED_SHELL ( 'NONE', ( #271, #220, #236, #155, #232, #223, #135, #277 ) ) ;
#345 = EDGE_LOOP ( 'NONE', ( #24 ) ) ;
#346 = COORDINATED_UNIVERSAL_TIME_OFFSET ( 1, 0, .AHEAD. ) ;
#347 = SECURITY_CLASSIFICATION_LEVEL ( 'unclassified' ) ;
#348 = MECHANICAL_CONTEXT ( 'NONE', #251, 'mechanical' ) ;
#349 = AXIS2_PLACEMENT_3D ( 'NONE', #273, #179, #298 ) ;
#350 = CARTESIAN_POINT ( 'NONE',  ( 1.571166602479410010E-14, 0.0000000000000000000, 4.500000000000000000 ) ) ;
#351 = FACE_OUTER_BOUND ( 'NONE', #292, .T. ) ;
#352 = EDGE_CURVE ( 'NONE', #278, #278, #116, .T. ) ;
#353 = DIRECTION ( 'NONE',  ( -1.000000000000000000, 0.0000000000000000000, 3.491481338843133355E-15 ) ) ;
#354 = DIRECTION ( 'NONE',  ( -1.000000000000000000, 0.0000000000000000000, 2.443272501375788312E-15 ) ) ;
#355 = CC_DESIGN_APPROVAL ( #18, ( #20 ) ) ;
#356 = VERTEX_POINT ( 'NONE', #305 ) ;
#357 = EDGE_CURVE ( 'NONE', #136, #136, #102, .T. ) ;
#358 = VERTEX_POINT ( 'NONE', #306 ) ;
#359 = CALENDAR_DATE ( 2021, 17, 12 ) ;
#360 = APPLICATION_PROTOCOL_DEFINITION ( 'international standard', 'config_control_design', 1994, #251 ) ;
#361 = CIRCLE ( 'NONE', #349, 0.5949999999999999734 ) ;
#362 = AXIS2_PLACEMENT_3D ( 'NONE', #279, #194, #21 ) ;
#363 = DIRECTION ( 'NONE',  ( -1.000000000000000000, 0.0000000000000000000, 3.491481338843133355E-15 ) ) ;
ENDSEC;
END-ISO-10303-21;
