ISO-10303-21;
HEADER;
FILE_DESCRIPTION (( 'STEP AP203' ),
    '1' );
FILE_NAME ('378082.step',
    '2021-12-17T07:11:12',
    ( '' ),
    ( '' ),
    'SwSTEP 2.0',
    'SolidWorks 2019',
    '' );
FILE_SCHEMA (( 'CONFIG_CONTROL_DESIGN' ));
ENDSEC;

DATA;
#1 = CARTESIAN_POINT ( 'NONE',  ( -1.499999999999863665, 0.0000000000000000000, 37.70000000000000284 ) ) ;
#2 = LOCAL_TIME ( 8, 11, 12.00000000000000000, #67 ) ;
#3 = CALENDAR_DATE ( 2021, 17, 12 ) ;
#4 = ADVANCED_FACE ( 'NONE', ( #361 ), #257, .F. ) ;
#5 = PERSON_AND_ORGANIZATION ( #253, #306 ) ;
#6 = ORIENTED_EDGE ( 'NONE', *, *, #353, .T. ) ;
#7 = PERSON_AND_ORGANIZATION ( #253, #306 ) ;
#8 = DIRECTION ( 'NONE',  ( -3.491481338843133355E-15, 0.0000000000000000000, -1.000000000000000000 ) ) ;
#9 = UNCERTAINTY_MEASURE_WITH_UNIT (LENGTH_MEASURE( 1.000000000000000082E-05 ), #110, 'distance_accuracy_value', 'NONE');
#10 = LOCAL_TIME ( 8, 11, 12.00000000000000000, #150 ) ;
#11 = PERSON_AND_ORGANIZATION_ROLE ( 'creator' ) ;
#12 = ORIENTED_EDGE ( 'NONE', *, *, #344, .T. ) ;
#13 = DIRECTION ( 'NONE',  ( -1.000000000000000000, 0.0000000000000000000, 3.491481338843133355E-15 ) ) ;
#14 = CC_DESIGN_PERSON_AND_ORGANIZATION_ASSIGNMENT ( #118, #85, ( #130 ) ) ;
#15 = DIRECTION ( 'NONE',  ( -3.491481338843133355E-15, 0.0000000000000000000, -1.000000000000000000 ) ) ;
#16 = CIRCLE ( 'NONE', #244, 0.3610000000000001541 ) ;
#17 = ADVANCED_FACE ( 'NONE', ( #22 ), #169, .T. ) ;
#18 = PLANE ( 'NONE',  #50 ) ;
#19 = FACE_OUTER_BOUND ( 'NONE', #135, .T. ) ;
#20 = VERTEX_POINT ( 'NONE', #98 ) ;
#21 = DIRECTION ( 'NONE',  ( 3.491481338843133355E-15, 0.0000000000000000000, 1.000000000000000000 ) ) ;
#22 = FACE_OUTER_BOUND ( 'NONE', #39, .T. ) ;
#23 = CARTESIAN_POINT ( 'NONE',  ( -0.3609999999999990994, 0.0000000000000000000, 0.2743708882941974792 ) ) ;
#24 = EDGE_LOOP ( 'NONE', ( #167 ) ) ;
#25 = LOCAL_TIME ( 8, 11, 12.00000000000000000, #293 ) ;
#26 = VERTEX_POINT ( 'NONE', #54 ) ;
#27 = CYLINDRICAL_SURFACE ( 'NONE', #148, 0.3199999999999996736 ) ;
#28 = EDGE_LOOP ( 'NONE', ( #106 ) ) ;
#29 = CARTESIAN_POINT ( 'NONE',  ( -0.3610000000000000986, 0.0000000000000000000, 1.267201026900405931E-15 ) ) ;
#30 = CARTESIAN_POINT ( 'NONE',  ( 2.094888803305882183E-16, 0.0000000000000000000, 0.06000000000000006023 ) ) ;
#31 = DIRECTION ( 'NONE',  ( 3.491481338843133355E-15, 0.0000000000000000000, 1.000000000000000000 ) ) ;
#32 = APPROVAL_ROLE ( '' ) ;
#33 = FACE_BOUND ( 'NONE', #198, .T. ) ;
#34 = PERSON_AND_ORGANIZATION ( #253, #306 ) ;
#35 = FACE_OUTER_BOUND ( 'NONE', #97, .T. ) ;
#36 = ORIENTED_EDGE ( 'NONE', *, *, #38, .T. ) ;
#37 = CALENDAR_DATE ( 2021, 17, 12 ) ;
#38 = EDGE_CURVE ( 'NONE', #341, #341, #180, .T. ) ;
#39 = EDGE_LOOP ( 'NONE', ( #153 ) ) ;
#40 = DIRECTION ( 'NONE',  ( 1.000000000000000000, 0.0000000000000000000, -3.491481338843133355E-15 ) ) ;
#41 = CARTESIAN_POINT ( 'NONE',  ( 1.859776219632355230E-15, 0.0000000000000000000, 0.5326610796804581716 ) ) ;
#42 = CC_DESIGN_PERSON_AND_ORGANIZATION_ASSIGNMENT ( #5, #116, ( #259 ) ) ;
#43 = DIRECTION ( 'NONE',  ( -1.000000000000000000, 0.0000000000000000000, 3.510749891857823562E-15 ) ) ;
#44 = AXIS2_PLACEMENT_3D ( 'NONE', #296, #177, #260 ) ;
#45 = AXIS2_PLACEMENT_3D ( 'NONE', #230, #207, #237 ) ;
#46 = FACE_BOUND ( 'NONE', #172, .T. ) ;
#47 = CARTESIAN_POINT ( 'NONE',  ( 0.0000000000000000000, 0.0000000000000000000, 0.0000000000000000000 ) ) ;
#48 = EDGE_CURVE ( 'NONE', #82, #82, #249, .T. ) ;
#49 = CLOSED_SHELL ( 'NONE', ( #107, #218, #333, #156, #326, #79, #178, #127 ) ) ;
#50 = AXIS2_PLACEMENT_3D ( 'NONE', #71, #15, #304 ) ;
#51 = DIRECTION ( 'NONE',  ( -3.491481338843133355E-15, 0.0000000000000000000, -1.000000000000000000 ) ) ;
#52 = ORIENTED_EDGE ( 'NONE', *, *, #123, .F. ) ;
#53 = DIRECTION ( 'NONE',  ( -3.491481338843133355E-15, 0.0000000000000000000, -1.000000000000000000 ) ) ;
#54 = CARTESIAN_POINT ( 'NONE',  ( -1.199999999999862732, 0.0000000000000000000, 38.00000000000000711 ) ) ;
#55 = CARTESIAN_POINT ( 'NONE',  ( -0.3540741737109153742, 0.0000000000000000000, 4.258819045102516299 ) ) ;
#56 = DIRECTION ( 'NONE',  ( 1.000000000000000000, 0.0000000000000000000, -3.469446951953624444E-15 ) ) ;
#57 = FACE_OUTER_BOUND ( 'NONE', #280, .T. ) ;
#58 = AXIS2_PLACEMENT_3D ( 'NONE', #201, #362, #263 ) ;
#59 = CARTESIAN_POINT ( 'NONE',  ( -0.3199999999999977862, 0.0000000000000000000, 0.5326610796804592818 ) ) ;
#60 = CARTESIAN_POINT ( 'NONE',  ( -0.3609999999999989329, 0.0000000000000000000, 0.3343708882941974769 ) ) ;
#61 = CALENDAR_DATE ( 2021, 17, 12 ) ;
#62 = CONICAL_SURFACE ( 'NONE', #129, 0.3610000000000000986, 1.047197551196600074 ) ;
#63 = CARTESIAN_POINT ( 'NONE',  ( 2.365919782978951696E-32, 0.0000000000000000000, 6.776263578034402713E-18 ) ) ;
#64 = CALENDAR_DATE ( 2021, 17, 12 ) ;
#65 = FACE_OUTER_BOUND ( 'NONE', #28, .T. ) ;
#66 = CARTESIAN_POINT ( 'NONE',  ( 2.980144277919595396E-14, 0.0000000000000000000, 8.535472450518771126 ) ) ;
#67 = COORDINATED_UNIVERSAL_TIME_OFFSET ( 1, 0, .AHEAD. ) ;
#68 = EDGE_LOOP ( 'NONE', ( #268 ) ) ;
#69 = CARTESIAN_POINT ( 'NONE',  ( 1.396592535537253342E-14, 0.0000000000000000000, 4.000000000000000000 ) ) ;
#70 = EDGE_CURVE ( 'NONE', #173, #173, #89, .T. ) ;
#71 = CARTESIAN_POINT ( 'NONE',  ( 1.326762908760390423E-13, 0.0000000000000000000, 38.00000000000000000 ) ) ;
#72 = DIRECTION ( 'NONE',  ( -1.000000000000000000, 0.0000000000000000000, 3.453829635341633593E-15 ) ) ;
#73 = AXIS2_PLACEMENT_3D ( 'NONE', #358, #109, #161 ) ;
#74 = CIRCLE ( 'NONE', #181, 0.3610000000000000986 ) ;
#75 = EDGE_CURVE ( 'NONE', #145, #145, #195, .T. ) ;
#76 = FACE_OUTER_BOUND ( 'NONE', #84, .T. ) ;
#77 = CIRCLE ( 'NONE', #220, 0.5250000000000000222 ) ;
#78 = CC_DESIGN_APPROVAL ( #330, ( #270 ) ) ;
#79 = ADVANCED_FACE ( 'NONE', ( #348, #213 ), #187, .T. ) ;
#80 = CARTESIAN_POINT ( 'NONE',  ( 0.0000000000000000000, 0.0000000000000000000, 0.0000000000000000000 ) ) ;
#81 = EDGE_LOOP ( 'NONE', ( #264 ) ) ;
#82 = VERTEX_POINT ( 'NONE', #59 ) ;
#83 = AXIS2_PLACEMENT_3D ( 'NONE', #302, #289, #40 ) ;
#84 = EDGE_LOOP ( 'NONE', ( #6 ) ) ;
#85 = PERSON_AND_ORGANIZATION_ROLE ( 'classification_officer' ) ;
#86 = FACE_OUTER_BOUND ( 'NONE', #176, .T. ) ;
#87 = EDGE_LOOP ( 'NONE', ( #303 ) ) ;
#88 = MECHANICAL_CONTEXT ( 'NONE', #211, 'mechanical' ) ;
#89 = CIRCLE ( 'NONE', #200, 0.3610000000000000986 ) ;
#90 =( GEOMETRIC_REPRESENTATION_CONTEXT ( 3 ) GLOBAL_UNCERTAINTY_ASSIGNED_CONTEXT ( ( #9 ) ) GLOBAL_UNIT_ASSIGNED_CONTEXT ( ( #110, #221, #194 ) ) REPRESENTATION_CONTEXT ( 'NONE', 'WORKASPACE' ) );
#91 = EDGE_CURVE ( 'NONE', #354, #354, #251, .T. ) ;
#92 = CC_DESIGN_APPROVAL ( #278, ( #130 ) ) ;
#93 = APPLICATION_PROTOCOL_DEFINITION ( 'international standard', 'config_control_design', 1994, #231 ) ;
#94 = EDGE_LOOP ( 'NONE', ( #143 ) ) ;
#95 = DIRECTION ( 'NONE',  ( -1.000000000000000000, 0.0000000000000000000, 3.491481338843133355E-15 ) ) ;
#96 = APPROVAL_ROLE ( '' ) ;
#97 = EDGE_LOOP ( 'NONE', ( #206 ) ) ;
#98 = CARTESIAN_POINT ( 'NONE',  ( -0.3609999999999999321, 0.0000000000000000000, 0.06000000000000132311 ) ) ;
#99 = AXIS2_PLACEMENT_3D ( 'NONE', #185, #287, #56 ) ;
#100 = CARTESIAN_POINT ( 'NONE',  ( 9.579608364010001428E-16, 0.0000000000000000000, 0.2743708882941962579 ) ) ;
#101 = CARTESIAN_POINT ( 'NONE',  ( 6.273683751013332982E-16, 0.0000000000000000000, 0.1796854441470981667 ) ) ;
#102 = APPROVAL ( #317, 'UNSPECIFIED' ) ;
#103 = AXIS2_PLACEMENT_3D ( 'NONE', #114, #228, #299 ) ;
#104 = DIRECTION ( 'NONE',  ( -3.491481338843133355E-15, 0.0000000000000000000, -1.000000000000000000 ) ) ;
#105 = DIRECTION ( 'NONE',  ( -3.491481338843133355E-15, 0.0000000000000000000, -1.000000000000000000 ) ) ;
#106 = ORIENTED_EDGE ( 'NONE', *, *, #91, .T. ) ;
#107 = ADVANCED_FACE ( 'NONE', ( #210 ), #324, .F. ) ;
#108 = CIRCLE ( 'NONE', #309, 0.3610000000000000986 ) ;
#109 = DIRECTION ( 'NONE',  ( 3.491481338843133355E-15, 0.0000000000000000000, 1.000000000000000000 ) ) ;
#110 =( LENGTH_UNIT ( ) NAMED_UNIT ( * ) SI_UNIT ( .MILLI., .METRE. ) );
#111 = CARTESIAN_POINT ( 'NONE',  ( 0.0000000000000000000, 0.0000000000000000000, 0.0000000000000000000 ) ) ;
#112 = FACE_BOUND ( 'NONE', #266, .T. ) ;
#113 = DIRECTION ( 'NONE',  ( -3.491481338843133355E-15, 0.0000000000000000000, -1.000000000000000000 ) ) ;
#114 = CARTESIAN_POINT ( 'NONE',  ( 1.859776219632355230E-15, 0.0000000000000000000, 0.5326610796804581716 ) ) ;
#115 = EDGE_LOOP ( 'NONE', ( #298 ) ) ;
#116 = PERSON_AND_ORGANIZATION_ROLE ( 'design_owner' ) ;
#117 = DIRECTION ( 'NONE',  ( -3.491481338843133355E-15, 0.0000000000000000000, -1.000000000000000000 ) ) ;
#118 = PERSON_AND_ORGANIZATION ( #253, #306 ) ;
#119 = ORIENTED_EDGE ( 'NONE', *, *, #344, .F. ) ;
#120 = TOROIDAL_SURFACE ( 'NONE', #337, 1.319999999999999618, 1.000000000000000000 ) ;
#121 = DIRECTION ( 'NONE',  ( -1.000000000000000000, 0.0000000000000000000, 3.469446951953624444E-15 ) ) ;
#122 = FACE_OUTER_BOUND ( 'NONE', #295, .T. ) ;
#123 = EDGE_CURVE ( 'NONE', #20, #20, #16, .T. ) ;
#124 = PERSON_AND_ORGANIZATION ( #253, #306 ) ;
#125 = CARTESIAN_POINT ( 'NONE',  ( 1.396592535537253342E-14, 0.0000000000000000000, 4.000000000000000000 ) ) ;
#126 = CIRCLE ( 'NONE', #276, 0.3540741737109301956 ) ;
#127 = ADVANCED_FACE ( 'NONE', ( #122 ), #18, .F. ) ;
#128 = DIRECTION ( 'NONE',  ( -3.491481338843133355E-15, 0.0000000000000000000, -1.000000000000000000 ) ) ;
#129 = AXIS2_PLACEMENT_3D ( 'NONE', #197, #53, #360 ) ;
#130 = SECURITY_CLASSIFICATION ( '', '', #322 ) ;
#131 = DIRECTION ( 'NONE',  ( -1.000000000000000000, 0.0000000000000000000, 3.491481338843134144E-15 ) ) ;
#132 = CC_DESIGN_DATE_AND_TIME_ASSIGNMENT ( #300, #267, ( #160 ) ) ;
#133 = DIRECTION ( 'NONE',  ( 0.0000000000000000000, 0.0000000000000000000, 1.000000000000000000 ) ) ;
#134 = CARTESIAN_POINT ( 'NONE',  ( -0.5249999999999994671, 0.0000000000000000000, 0.1796854441470999986 ) ) ;
#135 = EDGE_LOOP ( 'NONE', ( #339 ) ) ;
#136 = VERTEX_POINT ( 'NONE', #23 ) ;
#137 = AXIS2_PLACEMENT_3D ( 'NONE', #234, #184, #13 ) ;
#138 = CC_DESIGN_SECURITY_CLASSIFICATION ( #130, ( #270 ) ) ;
#139 = CARTESIAN_POINT ( 'NONE',  ( 1.167449716731587868E-15, -5.021130796460876260E-17, 0.3343708882941962002 ) ) ;
#140 = CARTESIAN_POINT ( 'NONE',  ( -0.5249999999999995781, 0.0000000000000000000, 0.1546854441471000041 ) ) ;
#141 = DIRECTION ( 'NONE',  ( -1.000000000000000000, 0.0000000000000000000, 3.510749891857823562E-15 ) ) ;
#142 = EDGE_CURVE ( 'NONE', #165, #165, #74, .T. ) ;
#143 = ORIENTED_EDGE ( 'NONE', *, *, #202, .F. ) ;
#144 = CARTESIAN_POINT ( 'NONE',  ( -0.3199999999999856293, 0.0000000000000000000, 4.000000000000000888 ) ) ;
#145 = VERTEX_POINT ( 'NONE', #1 ) ;
#146 = ORIENTED_EDGE ( 'NONE', *, *, #189, .F. ) ;
#147 = DATE_AND_TIME ( #314, #328 ) ;
#148 = AXIS2_PLACEMENT_3D ( 'NONE', #111, #265, #223 ) ;
#149 = ORIENTED_EDGE ( 'NONE', *, *, #91, .F. ) ;
#150 = COORDINATED_UNIVERSAL_TIME_OFFSET ( 1, 0, .AHEAD. ) ;
#151 = ORIENTED_EDGE ( 'NONE', *, *, #75, .F. ) ;
#152 = DATE_AND_TIME ( #37, #162 ) ;
#153 = ORIENTED_EDGE ( 'NONE', *, *, #38, .F. ) ;
#154 = CONICAL_SURFACE ( 'NONE', #321, 1.199999999999995293, 0.7853981633974453924 ) ;
#155 = DIRECTION ( 'NONE',  ( -3.491481338843133355E-15, 0.0000000000000000000, -1.000000000000000000 ) ) ;
#156 = ADVANCED_FACE ( 'NONE', ( #157, #241 ), #120, .F. ) ;
#157 = FACE_OUTER_BOUND ( 'NONE', #115, .T. ) ;
#158 = DESIGN_CONTEXT ( 'detailed design', #231, 'design' ) ;
#159 = DIRECTION ( 'NONE',  ( -3.491481338843133355E-15, 0.0000000000000000000, -1.000000000000000000 ) ) ;
#160 = PRODUCT_DEFINITION ( 'UNKNOWN', '', #270, #158 ) ;
#161 = DIRECTION ( 'NONE',  ( 1.000000000000000000, 0.0000000000000000000, -3.491481338843133355E-15 ) ) ;
#162 = LOCAL_TIME ( 8, 11, 12.00000000000000000, #208 ) ;
#163 = CARTESIAN_POINT ( 'NONE',  ( 5.400813416302550629E-16, 0.0000000000000000000, 0.1546854441470981723 ) ) ;
#164 = EDGE_LOOP ( 'NONE', ( #149 ) ) ;
#165 = VERTEX_POINT ( 'NONE', #338 ) ;
#166 = FACE_OUTER_BOUND ( 'NONE', #68, .T. ) ;
#167 = ORIENTED_EDGE ( 'NONE', *, *, #75, .T. ) ;
#168 = DIRECTION ( 'NONE',  ( -1.000000000000000000, 0.0000000000000000000, 3.491481338843133355E-15 ) ) ;
#169 = PLANE ( 'NONE',  #292 ) ;
#170 = APPROVAL_PERSON_ORGANIZATION ( #347, #102, #186 ) ;
#171 = DIRECTION ( 'NONE',  ( -3.491481338843133355E-15, 0.0000000000000000000, -1.000000000000000000 ) ) ;
#172 = EDGE_LOOP ( 'NONE', ( #12 ) ) ;
#173 = VERTEX_POINT ( 'NONE', #29 ) ;
#174 = EDGE_LOOP ( 'NONE', ( #151 ) ) ;
#175 = APPROVAL_STATUS ( 'not_yet_approved' ) ;
#176 = EDGE_LOOP ( 'NONE', ( #248 ) ) ;
#177 = DIRECTION ( 'NONE',  ( -3.491481338843133355E-15, 0.0000000000000000000, -1.000000000000000000 ) ) ;
#178 = ADVANCED_FACE ( 'NONE', ( #192, #46 ), #154, .T. ) ;
#179 = COORDINATED_UNIVERSAL_TIME_OFFSET ( 1, 0, .AHEAD. ) ;
#180 = CIRCLE ( 'NONE', #44, 0.3610000000000000986 ) ;
#181 = AXIS2_PLACEMENT_3D ( 'NONE', #193, #307, #275 ) ;
#182 = AXIS2_PLACEMENT_3D ( 'NONE', #41, #273, #277 ) ;
#183 = EDGE_LOOP ( 'NONE', ( #315 ) ) ;
#184 = DIRECTION ( 'NONE',  ( -3.491481338843133355E-15, 0.0000000000000000000, -1.000000000000000000 ) ) ;
#185 = CARTESIAN_POINT ( 'NONE',  ( 2.980144277919595396E-14, 0.0000000000000000000, 8.535472450518771126 ) ) ;
#186 = APPROVAL_ROLE ( '' ) ;
#187 = CYLINDRICAL_SURFACE ( 'NONE', #137, 1.499999999999995337 ) ;
#188 = SHAPE_DEFINITION_REPRESENTATION ( #323, #316 ) ;
#189 = EDGE_CURVE ( 'NONE', #136, #136, #108, .T. ) ;
#190 = ORIENTED_EDGE ( 'NONE', *, *, #356, .F. ) ;
#191 = AXIS2_PLACEMENT_3D ( 'NONE', #47, #159, #168 ) ;
#192 = FACE_OUTER_BOUND ( 'NONE', #174, .T. ) ;
#193 = CARTESIAN_POINT ( 'NONE',  ( 1.167449716731588065E-15, 0.0000000000000000000, 0.3343708882941962557 ) ) ;
#194 =( NAMED_UNIT ( * ) SI_UNIT ( $, .STERADIAN. ) SOLID_ANGLE_UNIT ( ) );
#195 = CIRCLE ( 'NONE', #45, 1.499999999999995337 ) ;
#196 = CYLINDRICAL_SURFACE ( 'NONE', #191, 0.3610000000000000986 ) ;
#197 = CARTESIAN_POINT ( 'NONE',  ( 9.579608364010001428E-16, 0.0000000000000000000, 0.2743708882941962579 ) ) ;
#198 = EDGE_LOOP ( 'NONE', ( #190 ) ) ;
#199 = CYLINDRICAL_SURFACE ( 'NONE', #58, 0.3610000000000000986 ) ;
#200 = AXIS2_PLACEMENT_3D ( 'NONE', #63, #291, #95 ) ;
#201 = CARTESIAN_POINT ( 'NONE',  ( 0.0000000000000000000, 0.0000000000000000000, 0.0000000000000000000 ) ) ;
#202 = EDGE_CURVE ( 'NONE', #252, #252, #286, .T. ) ;
#203 = CARTESIAN_POINT ( 'NONE',  ( 1.326762908760390423E-13, 0.0000000000000000000, 38.00000000000000000 ) ) ;
#204 = EDGE_LOOP ( 'NONE', ( #271 ) ) ;
#205 = APPROVAL_DATE_TIME ( #147, #330 ) ;
#206 = ORIENTED_EDGE ( 'NONE', *, *, #48, .F. ) ;
#207 = DIRECTION ( 'NONE',  ( -3.491481338843133355E-15, 0.0000000000000000000, -1.000000000000000000 ) ) ;
#208 = COORDINATED_UNIVERSAL_TIME_OFFSET ( 1, 0, .AHEAD. ) ;
#209 = ORIENTED_EDGE ( 'NONE', *, *, #202, .T. ) ;
#210 = FACE_OUTER_BOUND ( 'NONE', #81, .T. ) ;
#211 = APPLICATION_CONTEXT ( 'configuration controlled 3d designs of mechanical parts and assemblies' ) ;
#212 = DATE_AND_TIME ( #3, #2 ) ;
#213 = FACE_OUTER_BOUND ( 'NONE', #24, .T. ) ;
#214 = AXIS2_PLACEMENT_3D ( 'NONE', #363, #51, #131 ) ;
#215 = CC_DESIGN_PERSON_AND_ORGANIZATION_ASSIGNMENT ( #7, #290, ( #270 ) ) ;
#216 = DIRECTION ( 'NONE',  ( -1.000000000000000000, 0.0000000000000000000, 5.782411586589379332E-15 ) ) ;
#217 = CONICAL_SURFACE ( 'NONE', #355, 0.5250000000000000222, 1.047197551196599852 ) ;
#218 = ADVANCED_FACE ( 'NONE', ( #19, #243 ), #294, .F. ) ;
#219 = DIRECTION ( 'NONE',  ( 1.000000000000000000, 0.0000000000000000000, -3.510749891857823562E-15 ) ) ;
#220 = AXIS2_PLACEMENT_3D ( 'NONE', #318, #171, #141 ) ;
#221 =( NAMED_UNIT ( * ) PLANE_ANGLE_UNIT ( ) SI_UNIT ( $, .RADIAN. ) );
#222 = EDGE_CURVE ( 'NONE', #281, #281, #227, .T. ) ;
#223 = DIRECTION ( 'NONE',  ( -1.000000000000000000, 0.0000000000000000000, 3.491481338843133355E-15 ) ) ;
#224 = APPLICATION_PROTOCOL_DEFINITION ( 'international standard', 'config_control_design', 1994, #211 ) ;
#225 = DIRECTION ( 'NONE',  ( -1.000000000000000000, 0.0000000000000000000, 5.782411586589379332E-15 ) ) ;
#226 = ADVANCED_FACE ( 'NONE', ( #112, #76 ), #217, .T. ) ;
#227 = CIRCLE ( 'NONE', #336, 0.3199999999999996181 ) ;
#228 = DIRECTION ( 'NONE',  ( -3.491481338843133355E-15, 0.0000000000000000000, -1.000000000000000000 ) ) ;
#229 = PERSON_AND_ORGANIZATION_ROLE ( 'creator' ) ;
#230 = CARTESIAN_POINT ( 'NONE',  ( 1.316288464743861212E-13, 0.0000000000000000000, 37.69999999999999574 ) ) ;
#231 = APPLICATION_CONTEXT ( 'configuration controlled 3d designs of mechanical parts and assemblies' ) ;
#232 = CC_DESIGN_APPROVAL ( #102, ( #160 ) ) ;
#233 = ORIENTED_EDGE ( 'NONE', *, *, #123, .T. ) ;
#234 = CARTESIAN_POINT ( 'NONE',  ( 0.0000000000000000000, 0.0000000000000000000, 0.0000000000000000000 ) ) ;
#235 = ADVANCED_FACE ( 'NONE', ( #57, #334 ), #308, .T. ) ;
#236 = DATE_AND_TIME ( #61, #25 ) ;
#237 = DIRECTION ( 'NONE',  ( -1.000000000000000000, 0.0000000000000000000, 4.625929269271500311E-15 ) ) ;
#238 = APPROVAL_DATE_TIME ( #236, #102 ) ;
#239 = ADVANCED_FACE ( 'NONE', ( #335, #247 ), #62, .T. ) ;
#240 = CIRCLE ( 'NONE', #351, 1.199999999999995293 ) ;
#241 = FACE_OUTER_BOUND ( 'NONE', #87, .T. ) ;
#242 = DIRECTION ( 'NONE',  ( -1.000000000000000000, 0.0000000000000000000, 3.491481338843133355E-15 ) ) ;
#243 = FACE_OUTER_BOUND ( 'NONE', #204, .T. ) ;
#244 = AXIS2_PLACEMENT_3D ( 'NONE', #30, #155, #272 ) ;
#245 = DIRECTION ( 'NONE',  ( 1.000000000000000000, 0.0000000000000000000, 0.0000000000000000000 ) ) ;
#246 = VERTEX_POINT ( 'NONE', #140 ) ;
#247 = FACE_BOUND ( 'NONE', #301, .T. ) ;
#248 = ORIENTED_EDGE ( 'NONE', *, *, #222, .T. ) ;
#249 = CIRCLE ( 'NONE', #103, 0.3199999999999996736 ) ;
#250 = EDGE_LOOP ( 'NONE', ( #233 ) ) ;
#251 = CIRCLE ( 'NONE', #331, 1.499999999999995559 ) ;
#252 = VERTEX_POINT ( 'NONE', #134 ) ;
#253 = PERSON ( 'UNSPECIFIED', 'UNSPECIFIED', 'UNSPECIFIED', ('UNSPECIFIED'), ('UNSPECIFIED'), ('UNSPECIFIED') ) ;
#254 = MANIFOLD_SOLID_BREP ( 'Corps-Déplacer/Copier1[1]', #49 ) ;
#255 = CARTESIAN_POINT ( 'NONE',  ( 1.486958722148516556E-14, 0.0000000000000000000, 4.258819045102515410 ) ) ;
#256 = EDGE_LOOP ( 'NONE', ( #209 ) ) ;
#257 = PLANE ( 'NONE',  #73 ) ;
#258 = MANIFOLD_SOLID_BREP ( 'Corps-Déplacer/Copier1[2]', #261 ) ;
#259 = PRODUCT ( '378082', '378082', '', ( #88 ) ) ;
#260 = DIRECTION ( 'NONE',  ( -1.000000000000000000, 0.0000000000000000000, 3.453829635341633593E-15 ) ) ;
#261 = CLOSED_SHELL ( 'NONE', ( #4, #288, #226, #235, #239, #297, #17 ) ) ;
#262 = PERSON_AND_ORGANIZATION ( #253, #306 ) ;
#263 = DIRECTION ( 'NONE',  ( -1.000000000000000000, 0.0000000000000000000, 3.491481338843133355E-15 ) ) ;
#264 = ORIENTED_EDGE ( 'NONE', *, *, #142, .T. ) ;
#265 = DIRECTION ( 'NONE',  ( -3.491481338843133355E-15, 0.0000000000000000000, -1.000000000000000000 ) ) ;
#266 = EDGE_LOOP ( 'NONE', ( #52 ) ) ;
#267 = DATE_TIME_ROLE ( 'creation_date' ) ;
#268 = ORIENTED_EDGE ( 'NONE', *, *, #70, .F. ) ;
#269 = APPROVAL_STATUS ( 'not_yet_approved' ) ;
#270 = PRODUCT_DEFINITION_FORMATION_WITH_SPECIFIED_SOURCE ( 'ANY', '', #259, .NOT_KNOWN. ) ;
#271 = ORIENTED_EDGE ( 'NONE', *, *, #48, .T. ) ;
#272 = DIRECTION ( 'NONE',  ( -1.000000000000000000, 0.0000000000000000000, 3.491371261812738010E-15 ) ) ;
#273 = DIRECTION ( 'NONE',  ( -3.491481338843133355E-15, 0.0000000000000000000, -1.000000000000000000 ) ) ;
#274 = CC_DESIGN_PERSON_AND_ORGANIZATION_ASSIGNMENT ( #34, #229, ( #160 ) ) ;
#275 = DIRECTION ( 'NONE',  ( -1.000000000000000000, 0.0000000000000000000, 3.453829635341633593E-15 ) ) ;
#276 = AXIS2_PLACEMENT_3D ( 'NONE', #255, #113, #312 ) ;
#277 = DIRECTION ( 'NONE',  ( -1.000000000000000000, 0.0000000000000000000, 3.491481338843133355E-15 ) ) ;
#278 = APPROVAL ( #269, 'UNSPECIFIED' ) ;
#279 = CONICAL_SURFACE ( 'NONE', #99, 1.499999999999995559, 0.2617993877991426355 ) ;
#280 = EDGE_LOOP ( 'NONE', ( #319 ) ) ;
#281 = VERTEX_POINT ( 'NONE', #144 ) ;
#282 = CC_DESIGN_PERSON_AND_ORGANIZATION_ASSIGNMENT ( #124, #11, ( #270 ) ) ;
#283 = FACE_OUTER_BOUND ( 'NONE', #250, .T. ) ;
#284 = ORIENTED_EDGE ( 'NONE', *, *, #189, .T. ) ;
#285 = FACE_OUTER_BOUND ( 'NONE', #357, .T. ) ;
#286 = CIRCLE ( 'NONE', #327, 0.5250000000000000222 ) ;
#287 = DIRECTION ( 'NONE',  ( 3.491481338843133355E-15, 0.0000000000000000000, 1.000000000000000000 ) ) ;
#288 = ADVANCED_FACE ( 'NONE', ( #166, #283 ), #196, .T. ) ;
#289 = DIRECTION ( 'NONE',  ( 3.491481338843133355E-15, 0.0000000000000000000, 1.000000000000000000 ) ) ;
#290 = PERSON_AND_ORGANIZATION_ROLE ( 'design_supplier' ) ;
#291 = DIRECTION ( 'NONE',  ( -3.491481338843133355E-15, 0.0000000000000000000, -1.000000000000000000 ) ) ;
#292 = AXIS2_PLACEMENT_3D ( 'NONE', #139, #31, #320 ) ;
#293 = COORDINATED_UNIVERSAL_TIME_OFFSET ( 1, 0, .AHEAD. ) ;
#294 = TOROIDAL_SURFACE ( 'NONE', #182, 0.8199999999999996181, 0.5000000000000000000 ) ;
#295 = EDGE_LOOP ( 'NONE', ( #119 ) ) ;
#296 = CARTESIAN_POINT ( 'NONE',  ( 1.167449716731588065E-15, 0.0000000000000000000, 0.3343708882941962557 ) ) ;
#297 = ADVANCED_FACE ( 'NONE', ( #285, #343 ), #199, .T. ) ;
#298 = ORIENTED_EDGE ( 'NONE', *, *, #222, .F. ) ;
#299 = DIRECTION ( 'NONE',  ( -1.000000000000000000, 0.0000000000000000000, 3.388131789017204906E-15 ) ) ;
#300 = DATE_AND_TIME ( #64, #10 ) ;
#301 = EDGE_LOOP ( 'NONE', ( #284 ) ) ;
#302 = CARTESIAN_POINT ( 'NONE',  ( 1.167449716731587868E-15, -5.021130796460876260E-17, 0.3343708882941962002 ) ) ;
#303 = ORIENTED_EDGE ( 'NONE', *, *, #356, .T. ) ;
#304 = DIRECTION ( 'NONE',  ( -1.000000000000000000, 0.0000000000000000000, 3.491481338843133355E-15 ) ) ;
#305 = DIRECTION ( 'NONE',  ( -3.491481338843133355E-15, 0.0000000000000000000, -1.000000000000000000 ) ) ;
#306 = ORGANIZATION ( 'UNSPECIFIED', 'UNSPECIFIED', '' ) ;
#307 = DIRECTION ( 'NONE',  ( -3.491481338843133355E-15, 0.0000000000000000000, -1.000000000000000000 ) ) ;
#308 = CYLINDRICAL_SURFACE ( 'NONE', #214, 0.5250000000000000222 ) ;
#309 = AXIS2_PLACEMENT_3D ( 'NONE', #100, #329, #72 ) ;
#310 = DIRECTION ( 'NONE',  ( -1.000000000000000000, 0.0000000000000000000, 2.710505431213764240E-15 ) ) ;
#311 = APPROVAL_PERSON_ORGANIZATION ( #345, #330, #32 ) ;
#312 = DIRECTION ( 'NONE',  ( -1.000000000000000000, 0.0000000000000000000, 2.449661122972856486E-15 ) ) ;
#313 = PRODUCT_RELATED_PRODUCT_CATEGORY ( 'detail', '', ( #259 ) ) ;
#314 = CALENDAR_DATE ( 2021, 17, 12 ) ;
#315 = ORIENTED_EDGE ( 'NONE', *, *, #70, .T. ) ;
#316 = ADVANCED_BREP_SHAPE_REPRESENTATION ( '378082', ( #254, #258, #346 ), #90 ) ;
#317 = APPROVAL_STATUS ( 'not_yet_approved' ) ;
#318 = CARTESIAN_POINT ( 'NONE',  ( 5.400813416302550629E-16, 0.0000000000000000000, 0.1546854441470981723 ) ) ;
#319 = ORIENTED_EDGE ( 'NONE', *, *, #353, .F. ) ;
#320 = DIRECTION ( 'NONE',  ( 1.000000000000000000, 0.0000000000000000000, -3.491481338843133355E-15 ) ) ;
#321 = AXIS2_PLACEMENT_3D ( 'NONE', #352, #104, #216 ) ;
#322 = SECURITY_CLASSIFICATION_LEVEL ( 'unclassified' ) ;
#323 = PRODUCT_DEFINITION_SHAPE ( 'NONE', 'NONE',  #160 ) ;
#324 = PLANE ( 'NONE',  #83 ) ;
#325 = APPROVAL_DATE_TIME ( #212, #278 ) ;
#326 = ADVANCED_FACE ( 'NONE', ( #33, #65 ), #279, .T. ) ;
#327 = AXIS2_PLACEMENT_3D ( 'NONE', #101, #305, #43 ) ;
#328 = LOCAL_TIME ( 8, 11, 12.00000000000000000, #179 ) ;
#329 = DIRECTION ( 'NONE',  ( -3.491481338843133355E-15, 0.0000000000000000000, -1.000000000000000000 ) ) ;
#330 = APPROVAL ( #175, 'UNSPECIFIED' ) ;
#331 = AXIS2_PLACEMENT_3D ( 'NONE', #66, #8, #121 ) ;
#332 = CARTESIAN_POINT ( 'NONE',  ( -1.499999999999965805, 0.0000000000000000000, 8.535472450518776455 ) ) ;
#333 = ADVANCED_FACE ( 'NONE', ( #35, #86 ), #27, .T. ) ;
#334 = FACE_OUTER_BOUND ( 'NONE', #256, .T. ) ;
#335 = FACE_OUTER_BOUND ( 'NONE', #94, .T. ) ;
#336 = AXIS2_PLACEMENT_3D ( 'NONE', #69, #105, #310 ) ;
#337 = AXIS2_PLACEMENT_3D ( 'NONE', #125, #128, #242 ) ;
#338 = CARTESIAN_POINT ( 'NONE',  ( -0.3609999999999989329, 0.0000000000000000000, 0.3343708882941974769 ) ) ;
#339 = ORIENTED_EDGE ( 'NONE', *, *, #142, .F. ) ;
#340 = CC_DESIGN_DATE_AND_TIME_ASSIGNMENT ( #152, #349, ( #130 ) ) ;
#341 = VERTEX_POINT ( 'NONE', #60 ) ;
#342 = APPROVAL_PERSON_ORGANIZATION ( #262, #278, #96 ) ;
#343 = FACE_OUTER_BOUND ( 'NONE', #350, .T. ) ;
#344 = EDGE_CURVE ( 'NONE', #26, #26, #240, .T. ) ;
#345 = PERSON_AND_ORGANIZATION ( #253, #306 ) ;
#346 = AXIS2_PLACEMENT_3D ( 'NONE', #80, #133, #245 ) ;
#347 = PERSON_AND_ORGANIZATION ( #253, #306 ) ;
#348 = FACE_OUTER_BOUND ( 'NONE', #164, .T. ) ;
#349 = DATE_TIME_ROLE ( 'classification_date' ) ;
#350 = EDGE_LOOP ( 'NONE', ( #36 ) ) ;
#351 = AXIS2_PLACEMENT_3D ( 'NONE', #203, #117, #225 ) ;
#352 = CARTESIAN_POINT ( 'NONE',  ( 1.326762908760390423E-13, 0.0000000000000000000, 38.00000000000000000 ) ) ;
#353 = EDGE_CURVE ( 'NONE', #246, #246, #77, .T. ) ;
#354 = VERTEX_POINT ( 'NONE', #332 ) ;
#355 = AXIS2_PLACEMENT_3D ( 'NONE', #163, #21, #219 ) ;
#356 = EDGE_CURVE ( 'NONE', #359, #359, #126, .T. ) ;
#357 = EDGE_LOOP ( 'NONE', ( #146 ) ) ;
#358 = CARTESIAN_POINT ( 'NONE',  ( 1.182959891489475848E-32, 0.0000000000000000000, 3.388131789017201356E-18 ) ) ;
#359 = VERTEX_POINT ( 'NONE', #55 ) ;
#360 = DIRECTION ( 'NONE',  ( -1.000000000000000000, 0.0000000000000000000, 3.453829635341633593E-15 ) ) ;
#361 = FACE_OUTER_BOUND ( 'NONE', #183, .T. ) ;
#362 = DIRECTION ( 'NONE',  ( -3.491481338843133355E-15, 0.0000000000000000000, -1.000000000000000000 ) ) ;
#363 = CARTESIAN_POINT ( 'NONE',  ( 0.0000000000000000000, 0.0000000000000000000, 0.0000000000000000000 ) ) ;
ENDSEC;
END-ISO-10303-21;
