ISO-10303-21;
HEADER;
FILE_DESCRIPTION (( 'STEP AP203' ),
    '1' );
FILE_NAME ('378081.step',
    '2021-12-17T07:11:11',
    ( '' ),
    ( '' ),
    'SwSTEP 2.0',
    'SolidWorks 2019',
    '' );
FILE_SCHEMA (( 'CONFIG_CONTROL_DESIGN' ));
ENDSEC;

DATA;
#1 = FACE_OUTER_BOUND ( 'NONE', #274, .T. ) ;
#2 = PERSON_AND_ORGANIZATION_ROLE ( 'creator' ) ;
#3 = DIRECTION ( 'NONE',  ( -1.000000000000000000, 0.0000000000000000000, 3.491481338843133355E-15 ) ) ;
#4 = DIRECTION ( 'NONE',  ( 1.000000000000000000, 0.0000000000000000000, 0.0000000000000000000 ) ) ;
#5 = FACE_BOUND ( 'NONE', #23, .T. ) ;
#6 = MANIFOLD_SOLID_BREP ( 'Corps-Déplacer/Copier1[2]', #238 ) ;
#7 = CARTESIAN_POINT ( 'NONE',  ( 4.731839565957903391E-32, 0.0000000000000000000, 1.355252715606880543E-17 ) ) ;
#8 = VERTEX_POINT ( 'NONE', #115 ) ;
#9 = CONICAL_SURFACE ( 'NONE', #218, 1.499999999999995559, 0.2617993877991428020 ) ;
#10 = APPROVAL_ROLE ( '' ) ;
#11 = UNCERTAINTY_MEASURE_WITH_UNIT (LENGTH_MEASURE( 1.000000000000000082E-05 ), #34, 'distance_accuracy_value', 'NONE');
#12 = DIRECTION ( 'NONE',  ( -1.000000000000000000, 0.0000000000000000000, 4.625929269271500311E-15 ) ) ;
#13 = ADVANCED_FACE ( 'NONE', ( #310 ), #361, .F. ) ;
#14 = APPROVAL ( #44, 'UNSPECIFIED' ) ;
#15 = LOCAL_TIME ( 8, 11, 11.00000000000000000, #275 ) ;
#16 = ORIENTED_EDGE ( 'NONE', *, *, #289, .F. ) ;
#17 = CALENDAR_DATE ( 2021, 17, 12 ) ;
#18 = ADVANCED_FACE ( 'NONE', ( #109, #278 ), #165, .T. ) ;
#19 = PERSON_AND_ORGANIZATION_ROLE ( 'creator' ) ;
#20 = ORIENTED_EDGE ( 'NONE', *, *, #303, .T. ) ;
#21 = AXIS2_PLACEMENT_3D ( 'NONE', #151, #62, #345 ) ;
#22 = ORIENTED_EDGE ( 'NONE', *, *, #303, .F. ) ;
#23 = EDGE_LOOP ( 'NONE', ( #20 ) ) ;
#24 = EDGE_LOOP ( 'NONE', ( #46 ) ) ;
#25 = PRODUCT_DEFINITION ( 'UNKNOWN', '', #272, #235 ) ;
#26 = CONICAL_SURFACE ( 'NONE', #325, 0.4550000000000000155, 1.047197551196599852 ) ;
#27 = DIRECTION ( 'NONE',  ( -3.491481338843133355E-15, 0.0000000000000000000, -1.000000000000000000 ) ) ;
#28 = EDGE_CURVE ( 'NONE', #268, #268, #48, .T. ) ;
#29 = CC_DESIGN_DATE_AND_TIME_ASSIGNMENT ( #351, #99, ( #359 ) ) ;
#30 = DIRECTION ( 'NONE',  ( -3.491481338843133355E-15, 0.0000000000000000000, -1.000000000000000000 ) ) ;
#31 =( GEOMETRIC_REPRESENTATION_CONTEXT ( 3 ) GLOBAL_UNCERTAINTY_ASSIGNED_CONTEXT ( ( #11 ) ) GLOBAL_UNIT_ASSIGNED_CONTEXT ( ( #34, #316, #234 ) ) REPRESENTATION_CONTEXT ( 'NONE', 'WORKASPACE' ) );
#32 = ADVANCED_BREP_SHAPE_REPRESENTATION ( '378081', ( #125, #6, #200 ), #31 ) ;
#33 = FACE_OUTER_BOUND ( 'NONE', #282, .T. ) ;
#34 =( LENGTH_UNIT ( ) NAMED_UNIT ( * ) SI_UNIT ( .MILLI., .METRE. ) );
#35 = CARTESIAN_POINT ( 'NONE',  ( -0.2849999999999980882, 0.0000000000000000000, 0.4548210023282873160 ) ) ;
#36 = CC_DESIGN_PERSON_AND_ORGANIZATION_ASSIGNMENT ( #307, #2, ( #25 ) ) ;
#37 = CARTESIAN_POINT ( 'NONE',  ( -0.3159999999999991704, 0.0000000000000000000, 0.2315033748347162523 ) ) ;
#38 = AXIS2_PLACEMENT_3D ( 'NONE', #84, #39, #12 ) ;
#39 = DIRECTION ( 'NONE',  ( -3.491481338843133355E-15, 0.0000000000000000000, -1.000000000000000000 ) ) ;
#40 = ADVANCED_FACE ( 'NONE', ( #1, #56 ), #135, .T. ) ;
#41 = LOCAL_TIME ( 8, 11, 11.00000000000000000, #67 ) ;
#42 = APPROVAL_STATUS ( 'not_yet_approved' ) ;
#43 = EDGE_LOOP ( 'NONE', ( #189 ) ) ;
#44 = APPROVAL_STATUS ( 'not_yet_approved' ) ;
#45 = DIRECTION ( 'NONE',  ( 3.491481338843133355E-15, 0.0000000000000000000, 1.000000000000000000 ) ) ;
#46 = ORIENTED_EDGE ( 'NONE', *, *, #220, .T. ) ;
#47 = AXIS2_PLACEMENT_3D ( 'NONE', #80, #141, #356 ) ;
#48 = CIRCLE ( 'NONE', #304, 0.3160000000000000031 ) ;
#49 = ORIENTED_EDGE ( 'NONE', *, *, #339, .F. ) ;
#50 = ORIENTED_EDGE ( 'NONE', *, *, #52, .F. ) ;
#51 = FACE_OUTER_BOUND ( 'NONE', #187, .T. ) ;
#52 = EDGE_CURVE ( 'NONE', #347, #347, #222, .T. ) ;
#53 = CARTESIAN_POINT ( 'NONE',  ( 0.0000000000000000000, 0.0000000000000000000, 0.0000000000000000000 ) ) ;
#54 = DATE_TIME_ROLE ( 'creation_date' ) ;
#55 = APPROVAL ( #79, 'UNSPECIFIED' ) ;
#56 = FACE_BOUND ( 'NONE', #127, .T. ) ;
#57 = FACE_OUTER_BOUND ( 'NONE', #155, .T. ) ;
#58 = DIRECTION ( 'NONE',  ( -3.491481338843133355E-15, 0.0000000000000000000, -1.000000000000000000 ) ) ;
#59 = CC_DESIGN_APPROVAL ( #78, ( #25 ) ) ;
#60 = FACE_BOUND ( 'NONE', #43, .T. ) ;
#61 = CARTESIAN_POINT ( 'NONE',  ( -0.4549999999999995715, 0.0000000000000000000, 0.1302516874173592354 ) ) ;
#62 = DIRECTION ( 'NONE',  ( -3.491481338843133355E-15, 0.0000000000000000000, -1.000000000000000000 ) ) ;
#63 = COORDINATED_UNIVERSAL_TIME_OFFSET ( 1, 0, .AHEAD. ) ;
#64 = CARTESIAN_POINT ( 'NONE',  ( 9.828637800567716275E-16, 0.0000000000000000000, 0.2815033748347151588 ) ) ;
#65 = FACE_OUTER_BOUND ( 'NONE', #242, .T. ) ;
#66 = ORIENTED_EDGE ( 'NONE', *, *, #28, .T. ) ;
#67 = COORDINATED_UNIVERSAL_TIME_OFFSET ( 1, 0, .AHEAD. ) ;
#68 = EDGE_LOOP ( 'NONE', ( #16 ) ) ;
#69 = ORIENTED_EDGE ( 'NONE', *, *, #161, .T. ) ;
#70 = ORIENTED_EDGE ( 'NONE', *, *, #339, .T. ) ;
#71 = EDGE_CURVE ( 'NONE', #294, #294, #114, .T. ) ;
#72 = AXIS2_PLACEMENT_3D ( 'NONE', #7, #206, #293 ) ;
#73 = EDGE_LOOP ( 'NONE', ( #256 ) ) ;
#74 = CARTESIAN_POINT ( 'NONE',  ( 0.0000000000000000000, 0.0000000000000000000, 0.0000000000000000000 ) ) ;
#75 = PLANE ( 'NONE',  #265 ) ;
#76 = CIRCLE ( 'NONE', #257, 0.4550000000000000155 ) ;
#77 = CARTESIAN_POINT ( 'NONE',  ( 9.828637800567716275E-16, 0.0000000000000000000, 0.2815033748347151588 ) ) ;
#78 = APPROVAL ( #42, 'UNSPECIFIED' ) ;
#79 = APPROVAL_STATUS ( 'not_yet_approved' ) ;
#80 = CARTESIAN_POINT ( 'NONE',  ( 0.0000000000000000000, 0.0000000000000000000, 0.0000000000000000000 ) ) ;
#81 = DIRECTION ( 'NONE',  ( -3.491481338843133355E-15, 0.0000000000000000000, -1.000000000000000000 ) ) ;
#82 = DIRECTION ( 'NONE',  ( 0.0000000000000000000, 0.0000000000000000000, 1.000000000000000000 ) ) ;
#83 = DIRECTION ( 'NONE',  ( 3.491481338843133355E-15, 0.0000000000000000000, 1.000000000000000000 ) ) ;
#84 = CARTESIAN_POINT ( 'NONE',  ( 1.316288464743861212E-13, 0.0000000000000000000, 37.69999999999999574 ) ) ;
#85 = CARTESIAN_POINT ( 'NONE',  ( 9.828637800567716275E-16, 0.0000000000000000000, 0.2815033748347151588 ) ) ;
#86 = APPROVAL_PERSON_ORGANIZATION ( #241, #14, #130 ) ;
#87 = VERTEX_POINT ( 'NONE', #61 ) ;
#88 = FACE_OUTER_BOUND ( 'NONE', #352, .T. ) ;
#89 = VERTEX_POINT ( 'NONE', #202 ) ;
#90 = CYLINDRICAL_SURFACE ( 'NONE', #335, 0.2849999999999996425 ) ;
#91 = DIRECTION ( 'NONE',  ( -1.000000000000000000, 0.0000000000000000000, 5.782411586589379332E-15 ) ) ;
#92 = PERSON_AND_ORGANIZATION_ROLE ( 'design_owner' ) ;
#93 = CC_DESIGN_PERSON_AND_ORGANIZATION_ASSIGNMENT ( #126, #19, ( #272 ) ) ;
#94 = CARTESIAN_POINT ( 'NONE',  ( -0.3159999999999990039, 0.0000000000000000000, 0.2815033748347162135 ) ) ;
#95 = AXIS2_PLACEMENT_3D ( 'NONE', #53, #191, #166 ) ;
#96 = APPROVAL_PERSON_ORGANIZATION ( #196, #55, #10 ) ;
#97 = CARTESIAN_POINT ( 'NONE',  ( 1.587999042143140964E-15, 0.0000000000000000000, 0.4548210023282863168 ) ) ;
#98 = PERSON ( 'UNSPECIFIED', 'UNSPECIFIED', 'UNSPECIFIED', ('UNSPECIFIED'), ('UNSPECIFIED'), ('UNSPECIFIED') ) ;
#99 = DATE_TIME_ROLE ( 'classification_date' ) ;
#100 = ADVANCED_FACE ( 'NONE', ( #139 ), #75, .F. ) ;
#101 = CIRCLE ( 'NONE', #231, 0.3160000000000000031 ) ;
#102 = CALENDAR_DATE ( 2021, 17, 12 ) ;
#103 = ORIENTED_EDGE ( 'NONE', *, *, #221, .T. ) ;
#104 = ADVANCED_FACE ( 'NONE', ( #223, #336 ), #197, .T. ) ;
#105 = EDGE_LOOP ( 'NONE', ( #252 ) ) ;
#106 = TOROIDAL_SURFACE ( 'NONE', #285, 0.7849999999999996980, 0.5000000000000000000 ) ;
#107 = CALENDAR_DATE ( 2021, 17, 12 ) ;
#108 = CARTESIAN_POINT ( 'NONE',  ( 5.280924440862390650E-16, 0.0000000000000000000, 0.1512516874173576720 ) ) ;
#109 = FACE_OUTER_BOUND ( 'NONE', #215, .T. ) ;
#110 = DIRECTION ( 'NONE',  ( -1.000000000000000000, 0.0000000000000000000, 3.491481338843133355E-15 ) ) ;
#111 = CARTESIAN_POINT ( 'NONE',  ( -1.499999999999967359, 0.0000000000000000000, 8.066094228783688536 ) ) ;
#112 = CARTESIAN_POINT ( 'NONE',  ( 4.547713359705331541E-16, 0.0000000000000000000, 0.1302516874173576256 ) ) ;
#113 = CARTESIAN_POINT ( 'NONE',  ( 0.0000000000000000000, 0.0000000000000000000, 0.0000000000000000000 ) ) ;
#114 = CIRCLE ( 'NONE', #277, 1.499999999999995559 ) ;
#115 = CARTESIAN_POINT ( 'NONE',  ( -1.199999999999862732, 0.0000000000000000000, 38.00000000000000711 ) ) ;
#116 = DATE_AND_TIME ( #260, #250 ) ;
#117 = EDGE_CURVE ( 'NONE', #199, #199, #76, .T. ) ;
#118 = DIRECTION ( 'NONE',  ( -1.000000000000000000, 0.0000000000000000000, 3.043374519257559973E-15 ) ) ;
#119 = DIRECTION ( 'NONE',  ( -3.491481338843133355E-15, 0.0000000000000000000, -1.000000000000000000 ) ) ;
#120 = DIRECTION ( 'NONE',  ( -1.000000000000000000, 0.0000000000000000000, 3.491481338843133355E-15 ) ) ;
#121 = CIRCLE ( 'NONE', #170, 0.3160000000000000031 ) ;
#122 = APPROVAL_PERSON_ORGANIZATION ( #329, #78, #211 ) ;
#123 = DIRECTION ( 'NONE',  ( 1.000000000000000000, 0.0000000000000000000, -3.469446951953624444E-15 ) ) ;
#124 = EDGE_LOOP ( 'NONE', ( #70 ) ) ;
#125 = MANIFOLD_SOLID_BREP ( 'Corps-Déplacer/Copier1[1]', #209 ) ;
#126 = PERSON_AND_ORGANIZATION ( #98, #172 ) ;
#127 = EDGE_LOOP ( 'NONE', ( #66 ) ) ;
#128 = EDGE_LOOP ( 'NONE', ( #240 ) ) ;
#129 = CIRCLE ( 'NONE', #338, 0.2849999999999996425 ) ;
#130 = APPROVAL_ROLE ( '' ) ;
#131 = ADVANCED_FACE ( 'NONE', ( #57, #228 ), #168, .T. ) ;
#132 = ORIENTED_EDGE ( 'NONE', *, *, #327, .F. ) ;
#133 = EDGE_LOOP ( 'NONE', ( #276 ) ) ;
#134 = DIRECTION ( 'NONE',  ( -1.000000000000000000, 0.0000000000000000000, 3.516795021511525319E-15 ) ) ;
#135 = CONICAL_SURFACE ( 'NONE', #317, 0.3160000000000000031, 1.047197551196600518 ) ;
#136 = FACE_OUTER_BOUND ( 'NONE', #158, .T. ) ;
#137 = APPROVAL_DATE_TIME ( #116, #55 ) ;
#138 = DIRECTION ( 'NONE',  ( -1.000000000000000000, 0.0000000000000000000, 3.516795021511525319E-15 ) ) ;
#139 = FACE_OUTER_BOUND ( 'NONE', #24, .T. ) ;
#140 = AXIS2_PLACEMENT_3D ( 'NONE', #280, #27, #110 ) ;
#141 = DIRECTION ( 'NONE',  ( -3.491481338843133355E-15, 0.0000000000000000000, -1.000000000000000000 ) ) ;
#142 = LOCAL_TIME ( 8, 11, 11.00000000000000000, #253 ) ;
#143 = DIRECTION ( 'NONE',  ( 1.000000000000000000, 0.0000000000000000000, -3.491481338843133355E-15 ) ) ;
#144 = CARTESIAN_POINT ( 'NONE',  ( -0.2849999999999878186, 0.0000000000000000000, 3.400000000000000799 ) ) ;
#145 = PLANE ( 'NONE',  #244 ) ;
#146 = DIRECTION ( 'NONE',  ( 3.491481338843133355E-15, 0.0000000000000000000, 1.000000000000000000 ) ) ;
#147 = VERTEX_POINT ( 'NONE', #174 ) ;
#148 = DIRECTION ( 'NONE',  ( -3.491481338843133355E-15, 0.0000000000000000000, -1.000000000000000000 ) ) ;
#149 = CIRCLE ( 'NONE', #38, 1.499999999999995337 ) ;
#150 = FACE_OUTER_BOUND ( 'NONE', #124, .T. ) ;
#151 = CARTESIAN_POINT ( 'NONE',  ( 1.277469841817928081E-14, 0.0000000000000000000, 3.658819045102513989 ) ) ;
#152 = DATE_AND_TIME ( #326, #15 ) ;
#153 = ADVANCED_FACE ( 'NONE', ( #51, #136 ), #271, .F. ) ;
#154 = AXIS2_PLACEMENT_3D ( 'NONE', #233, #323, #120 ) ;
#155 = EDGE_LOOP ( 'NONE', ( #330 ) ) ;
#156 = CC_DESIGN_PERSON_AND_ORGANIZATION_ASSIGNMENT ( #346, #92, ( #334 ) ) ;
#157 = ORIENTED_EDGE ( 'NONE', *, *, #225, .F. ) ;
#158 = EDGE_LOOP ( 'NONE', ( #69 ) ) ;
#159 = PERSON_AND_ORGANIZATION_ROLE ( 'classification_officer' ) ;
#160 = DIRECTION ( 'NONE',  ( -1.000000000000000000, 0.0000000000000000000, 5.782411586589379332E-15 ) ) ;
#161 = EDGE_CURVE ( 'NONE', #324, #324, #185, .T. ) ;
#162 = CC_DESIGN_PERSON_AND_ORGANIZATION_ASSIGNMENT ( #299, #159, ( #359 ) ) ;
#163 = AXIS2_PLACEMENT_3D ( 'NONE', #97, #58, #173 ) ;
#164 = PRODUCT_DEFINITION_SHAPE ( 'NONE', 'NONE',  #25 ) ;
#165 = CYLINDRICAL_SURFACE ( 'NONE', #95, 0.4550000000000000155 ) ;
#166 = DIRECTION ( 'NONE',  ( -1.000000000000000000, 0.0000000000000000000, 3.491481338843132961E-15 ) ) ;
#167 = DIRECTION ( 'NONE',  ( -3.491481338843133355E-15, 0.0000000000000000000, -1.000000000000000000 ) ) ;
#168 = CYLINDRICAL_SURFACE ( 'NONE', #331, 1.499999999999995337 ) ;
#169 = VERTEX_POINT ( 'NONE', #344 ) ;
#170 = AXIS2_PLACEMENT_3D ( 'NONE', #350, #295, #180 ) ;
#171 = FACE_OUTER_BOUND ( 'NONE', #133, .T. ) ;
#172 = ORGANIZATION ( 'UNSPECIFIED', 'UNSPECIFIED', '' ) ;
#173 = DIRECTION ( 'NONE',  ( -1.000000000000000000, 0.0000000000000000000, 3.423796334164755266E-15 ) ) ;
#174 = CARTESIAN_POINT ( 'NONE',  ( -0.3159999999999990039, 0.0000000000000000000, 0.2815033748347162135 ) ) ;
#175 = CARTESIAN_POINT ( 'NONE',  ( -0.4549999999999994604, 0.0000000000000000000, 0.1512516874173592540 ) ) ;
#176 = FACE_OUTER_BOUND ( 'NONE', #128, .T. ) ;
#177 = DIRECTION ( 'NONE',  ( -1.000000000000000000, 0.0000000000000000000, 3.491481338843133355E-15 ) ) ;
#178 = MECHANICAL_CONTEXT ( 'NONE', #300, 'mechanical' ) ;
#179 = DIRECTION ( 'NONE',  ( -3.491481338843133355E-15, 0.0000000000000000000, -1.000000000000000000 ) ) ;
#180 = DIRECTION ( 'NONE',  ( -1.000000000000000000, 0.0000000000000000000, 3.495351149429138123E-15 ) ) ;
#181 = AXIS2_PLACEMENT_3D ( 'NONE', #269, #236, #348 ) ;
#182 = PERSON_AND_ORGANIZATION_ROLE ( 'design_supplier' ) ;
#183 = ORIENTED_EDGE ( 'NONE', *, *, #28, .F. ) ;
#184 = EDGE_LOOP ( 'NONE', ( #301 ) ) ;
#185 = CIRCLE ( 'NONE', #21, 0.3190741737109295539 ) ;
#186 = CC_DESIGN_APPROVAL ( #14, ( #359 ) ) ;
#187 = EDGE_LOOP ( 'NONE', ( #49 ) ) ;
#188 = PRODUCT_RELATED_PRODUCT_CATEGORY ( 'detail', '', ( #334 ) ) ;
#189 = ORIENTED_EDGE ( 'NONE', *, *, #161, .F. ) ;
#190 = CYLINDRICAL_SURFACE ( 'NONE', #47, 0.3160000000000000031 ) ;
#191 = DIRECTION ( 'NONE',  ( -3.491481338843133355E-15, 0.0000000000000000000, -1.000000000000000000 ) ) ;
#192 = CONICAL_SURFACE ( 'NONE', #297, 1.199999999999995293, 0.7853981633974453924 ) ;
#193 = APPLICATION_CONTEXT ( 'configuration controlled 3d designs of mechanical parts and assemblies' ) ;
#194 = ADVANCED_FACE ( 'NONE', ( #65 ), #343, .F. ) ;
#195 = CARTESIAN_POINT ( 'NONE',  ( 8.082897131146149598E-16, 0.0000000000000000000, 0.2315033748347151421 ) ) ;
#196 = PERSON_AND_ORGANIZATION ( #98, #172 ) ;
#197 = CYLINDRICAL_SURFACE ( 'NONE', #140, 0.3160000000000000031 ) ;
#198 = CIRCLE ( 'NONE', #72, 0.3160000000000000031 ) ;
#199 = VERTEX_POINT ( 'NONE', #175 ) ;
#200 = AXIS2_PLACEMENT_3D ( 'NONE', #113, #82, #4 ) ;
#201 = DIRECTION ( 'NONE',  ( -3.491481338843133355E-15, 0.0000000000000000000, -1.000000000000000000 ) ) ;
#202 = CARTESIAN_POINT ( 'NONE',  ( -0.3159999999999998366, 0.0000000000000000000, 0.05000000000000112688 ) ) ;
#203 = CARTESIAN_POINT ( 'NONE',  ( 1.587999042143140964E-15, 0.0000000000000000000, 0.4548210023282863168 ) ) ;
#204 = CARTESIAN_POINT ( 'NONE',  ( 1.326762908760390423E-13, 0.0000000000000000000, 38.00000000000000000 ) ) ;
#205 = DIRECTION ( 'NONE',  ( -1.000000000000000000, 0.0000000000000000000, 3.491481338843134144E-15 ) ) ;
#206 = DIRECTION ( 'NONE',  ( -3.491481338843133355E-15, 0.0000000000000000000, -1.000000000000000000 ) ) ;
#207 = APPLICATION_PROTOCOL_DEFINITION ( 'international standard', 'config_control_design', 1994, #193 ) ;
#208 = ORIENTED_EDGE ( 'NONE', *, *, #221, .F. ) ;
#209 = CLOSED_SHELL ( 'NONE', ( #13, #353, #360, #153, #290, #131, #210, #194 ) ) ;
#210 = ADVANCED_FACE ( 'NONE', ( #88, #5 ), #192, .T. ) ;
#211 = APPROVAL_ROLE ( '' ) ;
#212 = ORIENTED_EDGE ( 'NONE', *, *, #52, .T. ) ;
#213 = CC_DESIGN_PERSON_AND_ORGANIZATION_ASSIGNMENT ( #328, #182, ( #272 ) ) ;
#214 = SHAPE_DEFINITION_REPRESENTATION ( #164, #32 ) ;
#215 = EDGE_LOOP ( 'NONE', ( #208 ) ) ;
#216 = COORDINATED_UNIVERSAL_TIME_OFFSET ( 1, 0, .AHEAD. ) ;
#217 = ORIENTED_EDGE ( 'NONE', *, *, #327, .T. ) ;
#218 = AXIS2_PLACEMENT_3D ( 'NONE', #302, #45, #123 ) ;
#219 = EDGE_LOOP ( 'NONE', ( #212 ) ) ;
#220 = EDGE_CURVE ( 'NONE', #321, #321, #198, .T. ) ;
#221 = EDGE_CURVE ( 'NONE', #87, #87, #342, .T. ) ;
#222 = CIRCLE ( 'NONE', #249, 0.3160000000000000031 ) ;
#223 = FACE_OUTER_BOUND ( 'NONE', #273, .T. ) ;
#224 = DIRECTION ( 'NONE',  ( -3.491481338843133355E-15, 0.0000000000000000000, -1.000000000000000000 ) ) ;
#225 = EDGE_CURVE ( 'NONE', #89, #89, #121, .T. ) ;
#226 = ORIENTED_EDGE ( 'NONE', *, *, #117, .T. ) ;
#227 = DIRECTION ( 'NONE',  ( 3.491481338843133355E-15, 0.0000000000000000000, 1.000000000000000000 ) ) ;
#228 = FACE_OUTER_BOUND ( 'NONE', #296, .T. ) ;
#229 = DIRECTION ( 'NONE',  ( 1.000000000000000000, 0.0000000000000000000, -3.514721328387074684E-15 ) ) ;
#230 = EDGE_CURVE ( 'NONE', #264, #264, #279, .T. ) ;
#231 = AXIS2_PLACEMENT_3D ( 'NONE', #85, #201, #320 ) ;
#232 = FACE_OUTER_BOUND ( 'NONE', #354, .T. ) ;
#233 = CARTESIAN_POINT ( 'NONE',  ( 1.187103655206665183E-14, 0.0000000000000000000, 3.399999999999999911 ) ) ;
#234 =( NAMED_UNIT ( * ) SI_UNIT ( $, .STERADIAN. ) SOLID_ANGLE_UNIT ( ) );
#235 = DESIGN_CONTEXT ( 'detailed design', #193, 'design' ) ;
#236 = DIRECTION ( 'NONE',  ( -3.491481338843133355E-15, 0.0000000000000000000, -1.000000000000000000 ) ) ;
#237 = ADVANCED_FACE ( 'NONE', ( #262, #33 ), #26, .T. ) ;
#238 = CLOSED_SHELL ( 'NONE', ( #100, #322, #237, #18, #40, #104, #332 ) ) ;
#239 = CARTESIAN_POINT ( 'NONE',  ( 1.326762908760390423E-13, 0.0000000000000000000, 38.00000000000000000 ) ) ;
#240 = ORIENTED_EDGE ( 'NONE', *, *, #71, .T. ) ;
#241 = PERSON_AND_ORGANIZATION ( #98, #172 ) ;
#242 = EDGE_LOOP ( 'NONE', ( #22 ) ) ;
#243 = EDGE_LOOP ( 'NONE', ( #226 ) ) ;
#244 = AXIS2_PLACEMENT_3D ( 'NONE', #64, #315, #286 ) ;
#245 = APPROVAL_DATE_TIME ( #355, #14 ) ;
#246 = SECURITY_CLASSIFICATION_LEVEL ( 'unclassified' ) ;
#247 = EDGE_LOOP ( 'NONE', ( #306 ) ) ;
#248 = DIRECTION ( 'NONE',  ( -1.000000000000000000, 0.0000000000000000000, 3.469446951953624444E-15 ) ) ;
#249 = AXIS2_PLACEMENT_3D ( 'NONE', #337, #363, #281 ) ;
#250 = LOCAL_TIME ( 8, 11, 11.00000000000000000, #63 ) ;
#251 = FACE_OUTER_BOUND ( 'NONE', #73, .T. ) ;
#252 = ORIENTED_EDGE ( 'NONE', *, *, #230, .T. ) ;
#253 = COORDINATED_UNIVERSAL_TIME_OFFSET ( 1, 0, .AHEAD. ) ;
#254 = DIRECTION ( 'NONE',  ( 1.000000000000000000, 0.0000000000000000000, -3.491481338843133355E-15 ) ) ;
#255 = FACE_OUTER_BOUND ( 'NONE', #184, .T. ) ;
#256 = ORIENTED_EDGE ( 'NONE', *, *, #220, .F. ) ;
#257 = AXIS2_PLACEMENT_3D ( 'NONE', #108, #81, #311 ) ;
#258 = CIRCLE ( 'NONE', #284, 1.199999999999995293 ) ;
#259 = DIRECTION ( 'NONE',  ( -3.491481338843133355E-15, 0.0000000000000000000, -1.000000000000000000 ) ) ;
#260 = CALENDAR_DATE ( 2021, 17, 12 ) ;
#261 = CARTESIAN_POINT ( 'NONE',  ( 0.0000000000000000000, 0.0000000000000000000, 0.0000000000000000000 ) ) ;
#262 = FACE_BOUND ( 'NONE', #305, .T. ) ;
#263 = CARTESIAN_POINT ( 'NONE',  ( 1.187103655206665183E-14, 0.0000000000000000000, 3.399999999999999911 ) ) ;
#264 = VERTEX_POINT ( 'NONE', #35 ) ;
#265 = AXIS2_PLACEMENT_3D ( 'NONE', #358, #83, #254 ) ;
#266 = DIRECTION ( 'NONE',  ( -1.000000000000000000, 0.0000000000000000000, 3.491481338843133355E-15 ) ) ;
#267 = APPLICATION_PROTOCOL_DEFINITION ( 'international standard', 'config_control_design', 1994, #300 ) ;
#268 = VERTEX_POINT ( 'NONE', #37 ) ;
#269 = CARTESIAN_POINT ( 'NONE',  ( 4.547713359705331541E-16, 0.0000000000000000000, 0.1302516874173576256 ) ) ;
#270 = DIRECTION ( 'NONE',  ( -3.491481338843133355E-15, 0.0000000000000000000, -1.000000000000000000 ) ) ;
#271 = TOROIDAL_SURFACE ( 'NONE', #154, 1.284999999999999698, 1.000000000000000000 ) ;
#272 = PRODUCT_DEFINITION_FORMATION_WITH_SPECIFIED_SOURCE ( 'ANY', '', #334, .NOT_KNOWN. ) ;
#273 = EDGE_LOOP ( 'NONE', ( #183 ) ) ;
#274 = EDGE_LOOP ( 'NONE', ( #333 ) ) ;
#275 = COORDINATED_UNIVERSAL_TIME_OFFSET ( 1, 0, .AHEAD. ) ;
#276 = ORIENTED_EDGE ( 'NONE', *, *, #230, .F. ) ;
#277 = AXIS2_PLACEMENT_3D ( 'NONE', #340, #259, #248 ) ;
#278 = FACE_OUTER_BOUND ( 'NONE', #243, .T. ) ;
#279 = CIRCLE ( 'NONE', #163, 0.2849999999999996425 ) ;
#280 = CARTESIAN_POINT ( 'NONE',  ( 0.0000000000000000000, 0.0000000000000000000, 0.0000000000000000000 ) ) ;
#281 = DIRECTION ( 'NONE',  ( -1.000000000000000000, 0.0000000000000000000, 3.431019533181976142E-15 ) ) ;
#282 = EDGE_LOOP ( 'NONE', ( #103 ) ) ;
#283 = VERTEX_POINT ( 'NONE', #144 ) ;
#284 = AXIS2_PLACEMENT_3D ( 'NONE', #239, #167, #160 ) ;
#285 = AXIS2_PLACEMENT_3D ( 'NONE', #203, #148, #266 ) ;
#286 = DIRECTION ( 'NONE',  ( 1.000000000000000000, 0.0000000000000000000, -3.491481338843133355E-15 ) ) ;
#287 = CARTESIAN_POINT ( 'NONE',  ( 1.326762908760390423E-13, 0.0000000000000000000, 38.00000000000000000 ) ) ;
#288 = FACE_OUTER_BOUND ( 'NONE', #105, .T. ) ;
#289 = EDGE_CURVE ( 'NONE', #147, #147, #101, .T. ) ;
#290 = ADVANCED_FACE ( 'NONE', ( #60, #176 ), #9, .T. ) ;
#291 = AXIS2_PLACEMENT_3D ( 'NONE', #77, #227, #143 ) ;
#292 = FACE_OUTER_BOUND ( 'NONE', #68, .T. ) ;
#293 = DIRECTION ( 'NONE',  ( -1.000000000000000000, 0.0000000000000000000, 3.491481338843133355E-15 ) ) ;
#294 = VERTEX_POINT ( 'NONE', #111 ) ;
#295 = DIRECTION ( 'NONE',  ( -3.491481338843133355E-15, 0.0000000000000000000, -1.000000000000000000 ) ) ;
#296 = EDGE_LOOP ( 'NONE', ( #217 ) ) ;
#297 = AXIS2_PLACEMENT_3D ( 'NONE', #204, #119, #91 ) ;
#298 = CC_DESIGN_DATE_AND_TIME_ASSIGNMENT ( #362, #54, ( #25 ) ) ;
#299 = PERSON_AND_ORGANIZATION ( #98, #172 ) ;
#300 = APPLICATION_CONTEXT ( 'configuration controlled 3d designs of mechanical parts and assemblies' ) ;
#301 = ORIENTED_EDGE ( 'NONE', *, *, #225, .T. ) ;
#302 = CARTESIAN_POINT ( 'NONE',  ( 2.816261747714853183E-14, 0.0000000000000000000, 8.066094228783683207 ) ) ;
#303 = EDGE_CURVE ( 'NONE', #8, #8, #258, .T. ) ;
#304 = AXIS2_PLACEMENT_3D ( 'NONE', #309, #224, #138 ) ;
#305 = EDGE_LOOP ( 'NONE', ( #157 ) ) ;
#306 = ORIENTED_EDGE ( 'NONE', *, *, #289, .T. ) ;
#307 = PERSON_AND_ORGANIZATION ( #98, #172 ) ;
#308 = DIRECTION ( 'NONE',  ( -3.491481338843133355E-15, 0.0000000000000000000, -1.000000000000000000 ) ) ;
#309 = CARTESIAN_POINT ( 'NONE',  ( 8.082897131146149598E-16, 0.0000000000000000000, 0.2315033748347151421 ) ) ;
#310 = FACE_OUTER_BOUND ( 'NONE', #219, .T. ) ;
#311 = DIRECTION ( 'NONE',  ( -1.000000000000000000, 0.0000000000000000000, 3.514721328387074684E-15 ) ) ;
#312 = CARTESIAN_POINT ( 'NONE',  ( -0.3160000000000000031, 0.0000000000000000000, 1.116860630230498898E-15 ) ) ;
#313 = APPROVAL_DATE_TIME ( #152, #78 ) ;
#314 = CC_DESIGN_SECURITY_CLASSIFICATION ( #359, ( #272 ) ) ;
#315 = DIRECTION ( 'NONE',  ( 3.491481338843133355E-15, 0.0000000000000000000, 1.000000000000000000 ) ) ;
#316 =( NAMED_UNIT ( * ) PLANE_ANGLE_UNIT ( ) SI_UNIT ( $, .RADIAN. ) );
#317 = AXIS2_PLACEMENT_3D ( 'NONE', #195, #308, #134 ) ;
#318 = CC_DESIGN_APPROVAL ( #55, ( #272 ) ) ;
#319 = DIRECTION ( 'NONE',  ( -3.491481338843133355E-15, 0.0000000000000000000, -1.000000000000000000 ) ) ;
#320 = DIRECTION ( 'NONE',  ( -1.000000000000000000, 0.0000000000000000000, 3.431019533181976142E-15 ) ) ;
#321 = VERTEX_POINT ( 'NONE', #312 ) ;
#322 = ADVANCED_FACE ( 'NONE', ( #251, #255 ), #190, .T. ) ;
#323 = DIRECTION ( 'NONE',  ( -3.491481338843133355E-15, 0.0000000000000000000, -1.000000000000000000 ) ) ;
#324 = VERTEX_POINT ( 'NONE', #341 ) ;
#325 = AXIS2_PLACEMENT_3D ( 'NONE', #112, #146, #229 ) ;
#326 = CALENDAR_DATE ( 2021, 17, 12 ) ;
#327 = EDGE_CURVE ( 'NONE', #169, #169, #149, .T. ) ;
#328 = PERSON_AND_ORGANIZATION ( #98, #172 ) ;
#329 = PERSON_AND_ORGANIZATION ( #98, #172 ) ;
#330 = ORIENTED_EDGE ( 'NONE', *, *, #71, .F. ) ;
#331 = AXIS2_PLACEMENT_3D ( 'NONE', #74, #30, #3 ) ;
#332 = ADVANCED_FACE ( 'NONE', ( #292 ), #145, .T. ) ;
#333 = ORIENTED_EDGE ( 'NONE', *, *, #117, .F. ) ;
#334 = PRODUCT ( '378081', '378081', '', ( #178 ) ) ;
#335 = AXIS2_PLACEMENT_3D ( 'NONE', #261, #319, #205 ) ;
#336 = FACE_OUTER_BOUND ( 'NONE', #247, .T. ) ;
#337 = CARTESIAN_POINT ( 'NONE',  ( 9.828637800567716275E-16, 0.0000000000000000000, 0.2815033748347151588 ) ) ;
#338 = AXIS2_PLACEMENT_3D ( 'NONE', #263, #179, #118 ) ;
#339 = EDGE_CURVE ( 'NONE', #283, #283, #129, .T. ) ;
#340 = CARTESIAN_POINT ( 'NONE',  ( 2.816261747714853183E-14, 0.0000000000000000000, 8.066094228783683207 ) ) ;
#341 = CARTESIAN_POINT ( 'NONE',  ( -0.3190741737109167864, 0.0000000000000000000, 3.658819045102515322 ) ) ;
#342 = CIRCLE ( 'NONE', #181, 0.4550000000000000155 ) ;
#343 = PLANE ( 'NONE',  #357 ) ;
#344 = CARTESIAN_POINT ( 'NONE',  ( -1.499999999999863665, 0.0000000000000000000, 37.70000000000000284 ) ) ;
#345 = DIRECTION ( 'NONE',  ( -1.000000000000000000, 0.0000000000000000000, 4.077555359153906432E-15 ) ) ;
#346 = PERSON_AND_ORGANIZATION ( #98, #172 ) ;
#347 = VERTEX_POINT ( 'NONE', #94 ) ;
#348 = DIRECTION ( 'NONE',  ( -1.000000000000000000, 0.0000000000000000000, 3.514721328387074684E-15 ) ) ;
#349 = LOCAL_TIME ( 8, 11, 11.00000000000000000, #216 ) ;
#350 = CARTESIAN_POINT ( 'NONE',  ( 1.745740669421567417E-16, 0.0000000000000000000, 0.05000000000000002359 ) ) ;
#351 = DATE_AND_TIME ( #17, #41 ) ;
#352 = EDGE_LOOP ( 'NONE', ( #132 ) ) ;
#353 = ADVANCED_FACE ( 'NONE', ( #232, #288 ), #106, .F. ) ;
#354 = EDGE_LOOP ( 'NONE', ( #50 ) ) ;
#355 = DATE_AND_TIME ( #102, #349 ) ;
#356 = DIRECTION ( 'NONE',  ( -1.000000000000000000, 0.0000000000000000000, 3.491481338843133355E-15 ) ) ;
#357 = AXIS2_PLACEMENT_3D ( 'NONE', #287, #270, #177 ) ;
#358 = CARTESIAN_POINT ( 'NONE',  ( 2.365919782978951696E-32, 0.0000000000000000000, 6.776263578034402713E-18 ) ) ;
#359 = SECURITY_CLASSIFICATION ( '', '', #246 ) ;
#360 = ADVANCED_FACE ( 'NONE', ( #171, #150 ), #90, .T. ) ;
#361 = PLANE ( 'NONE',  #291 ) ;
#362 = DATE_AND_TIME ( #107, #142 ) ;
#363 = DIRECTION ( 'NONE',  ( -3.491481338843133355E-15, 0.0000000000000000000, -1.000000000000000000 ) ) ;
ENDSEC;
END-ISO-10303-21;
