ISO-10303-21;
HEADER;
FILE_DESCRIPTION (( 'STEP AP203' ),
    '1' );
FILE_NAME ('378080.step',
    '2021-12-17T07:11:11',
    ( '' ),
    ( '' ),
    'SwSTEP 2.0',
    'SolidWorks 2019',
    '' );
FILE_SCHEMA (( 'CONFIG_CONTROL_DESIGN' ));
ENDSEC;

DATA;
#1 = CIRCLE ( 'NONE', #84, 0.1849999999999994982 ) ;
#2 = AXIS2_PLACEMENT_3D ( 'NONE', #155, #93, #127 ) ;
#3 = APPLICATION_PROTOCOL_DEFINITION ( 'international standard', 'config_control_design', 1994, #15 ) ;
#4 = VERTEX_POINT ( 'NONE', #180 ) ;
#5 = PLANE ( 'NONE',  #352 ) ;
#6 = CARTESIAN_POINT ( 'NONE',  ( -0.3549999999999994271, 0.0000000000000000000, 0.1512516874173588932 ) ) ;
#7 = FACE_OUTER_BOUND ( 'NONE', #134, .T. ) ;
#8 =( NAMED_UNIT ( * ) PLANE_ANGLE_UNIT ( ) SI_UNIT ( $, .RADIAN. ) );
#9 = AXIS2_PLACEMENT_3D ( 'NONE', #95, #150, #261 ) ;
#10 = PERSON_AND_ORGANIZATION_ROLE ( 'creator' ) ;
#11 = DESIGN_CONTEXT ( 'detailed design', #15, 'design' ) ;
#12 = VERTEX_POINT ( 'NONE', #232 ) ;
#13 = FACE_OUTER_BOUND ( 'NONE', #348, .T. ) ;
#14 = ADVANCED_FACE ( 'NONE', ( #230, #354 ), #199, .T. ) ;
#15 = APPLICATION_CONTEXT ( 'configuration controlled 3d designs of mechanical parts and assemblies' ) ;
#16 = CYLINDRICAL_SURFACE ( 'NONE', #325, 0.2159999999999999420 ) ;
#17 = AXIS2_PLACEMENT_3D ( 'NONE', #189, #226, #337 ) ;
#18 = PERSON_AND_ORGANIZATION ( #190, #335 ) ;
#19 = ORIENTED_EDGE ( 'NONE', *, *, #34, .F. ) ;
#20 = EDGE_CURVE ( 'NONE', #237, #237, #159, .T. ) ;
#21 = PERSON_AND_ORGANIZATION_ROLE ( 'design_supplier' ) ;
#22 = EDGE_LOOP ( 'NONE', ( #55 ) ) ;
#23 = AXIS2_PLACEMENT_3D ( 'NONE', #182, #324, #48 ) ;
#24 = CARTESIAN_POINT ( 'NONE',  ( 1.067980961487339922E-14, 0.0000000000000000000, 3.058819045102513901 ) ) ;
#25 = EDGE_CURVE ( 'NONE', #309, #309, #151, .T. ) ;
#26 = ORIENTED_EDGE ( 'NONE', *, *, #20, .T. ) ;
#27 = DIRECTION ( 'NONE',  ( -3.491481338843133355E-15, 0.0000000000000000000, -1.000000000000000000 ) ) ;
#28 = AXIS2_PLACEMENT_3D ( 'NONE', #156, #264, #345 ) ;
#29 = EDGE_LOOP ( 'NONE', ( #276 ) ) ;
#30 = ADVANCED_FACE ( 'NONE', ( #171, #113 ), #249, .T. ) ;
#31 = PRODUCT_RELATED_PRODUCT_CATEGORY ( 'detail', '', ( #61 ) ) ;
#32 = FACE_OUTER_BOUND ( 'NONE', #29, .T. ) ;
#33 = FACE_BOUND ( 'NONE', #336, .T. ) ;
#34 = EDGE_CURVE ( 'NONE', #130, #130, #1, .T. ) ;
#35 = CARTESIAN_POINT ( 'NONE',  ( -0.2159999999999991371, 0.0000000000000000000, 0.2315033748347158638 ) ) ;
#36 = APPROVAL ( #303, 'UNSPECIFIED' ) ;
#37 = PRODUCT_DEFINITION_SHAPE ( 'NONE', 'NONE',  #258 ) ;
#38 = DIRECTION ( 'NONE',  ( -3.491481338843133355E-15, 0.0000000000000000000, -1.000000000000000000 ) ) ;
#39 = CARTESIAN_POINT ( 'NONE',  ( -0.2190741737109187237, 0.0000000000000000000, 3.058819045102514345 ) ) ;
#40 = DIRECTION ( 'NONE',  ( -3.491481338843133355E-15, 0.0000000000000000000, -1.000000000000000000 ) ) ;
#41 = AXIS2_PLACEMENT_3D ( 'NONE', #167, #273, #116 ) ;
#42 = CIRCLE ( 'NONE', #9, 0.3549999999999999822 ) ;
#43 = DIRECTION ( 'NONE',  ( -3.491481338843133355E-15, 0.0000000000000000000, -1.000000000000000000 ) ) ;
#44 = EDGE_CURVE ( 'NONE', #4, #4, #195, .T. ) ;
#45 = DIRECTION ( 'NONE',  ( -1.000000000000000000, 0.0000000000000000000, 3.491481338843133355E-15 ) ) ;
#46 = EDGE_LOOP ( 'NONE', ( #89 ) ) ;
#47 = ORIENTED_EDGE ( 'NONE', *, *, #363, .F. ) ;
#48 = DIRECTION ( 'NONE',  ( 1.000000000000000000, 0.0000000000000000000, 0.0000000000000000000 ) ) ;
#49 = DATE_AND_TIME ( #322, #50 ) ;
#50 = LOCAL_TIME ( 8, 11, 11.00000000000000000, #133 ) ;
#51 = CC_DESIGN_APPROVAL ( #238, ( #248 ) ) ;
#52 = DIRECTION ( 'NONE',  ( -1.000000000000000000, 0.0000000000000000000, 3.491481338843133355E-15 ) ) ;
#53 = DIRECTION ( 'NONE',  ( -3.491481338843133355E-15, 0.0000000000000000000, -1.000000000000000000 ) ) ;
#54 = ORIENTED_EDGE ( 'NONE', *, *, #44, .T. ) ;
#55 = ORIENTED_EDGE ( 'NONE', *, *, #173, .T. ) ;
#56 = EDGE_CURVE ( 'NONE', #287, #287, #288, .T. ) ;
#57 = CYLINDRICAL_SURFACE ( 'NONE', #63, 1.499999999999995337 ) ;
#58 = APPROVAL_DATE_TIME ( #361, #36 ) ;
#59 = CC_DESIGN_PERSON_AND_ORGANIZATION_ASSIGNMENT ( #18, #166, ( #248 ) ) ;
#60 = DIRECTION ( 'NONE',  ( -1.000000000000000000, 0.0000000000000000000, 3.959214923859058440E-15 ) ) ;
#61 = PRODUCT ( '378080', '378080', '', ( #269 ) ) ;
#62 = MANIFOLD_SOLID_BREP ( 'Corps-Déplacer/Copier1[1]', #98 ) ;
#63 = AXIS2_PLACEMENT_3D ( 'NONE', #90, #67, #291 ) ;
#64 =( LENGTH_UNIT ( ) NAMED_UNIT ( * ) SI_UNIT ( .MILLI., .METRE. ) );
#65 = PLANE ( 'NONE',  #111 ) ;
#66 = FACE_OUTER_BOUND ( 'NONE', #268, .T. ) ;
#67 = DIRECTION ( 'NONE',  ( -3.491481338843133355E-15, 0.0000000000000000000, -1.000000000000000000 ) ) ;
#68 = UNCERTAINTY_MEASURE_WITH_UNIT (LENGTH_MEASURE( 1.000000000000000082E-05 ), #64, 'distance_accuracy_value', 'NONE');
#69 = AXIS2_PLACEMENT_3D ( 'NONE', #267, #240, #73 ) ;
#70 = COORDINATED_UNIVERSAL_TIME_OFFSET ( 1, 0, .AHEAD. ) ;
#71 = CARTESIAN_POINT ( 'NONE',  ( 1.326762908760390423E-13, 0.0000000000000000000, 38.00000000000000000 ) ) ;
#72 = ORIENTED_EDGE ( 'NONE', *, *, #25, .F. ) ;
#73 = DIRECTION ( 'NONE',  ( -1.000000000000000000, 0.0000000000000000000, 3.482246560934346934E-15 ) ) ;
#74 = CARTESIAN_POINT ( 'NONE',  ( 9.776147748760771817E-15, 0.0000000000000000000, 2.799999999999999378 ) ) ;
#75 = EDGE_LOOP ( 'NONE', ( #26 ) ) ;
#76 = CALENDAR_DATE ( 2021, 17, 12 ) ;
#77 = EDGE_CURVE ( 'NONE', #174, #174, #201, .T. ) ;
#78 = AXIS2_PLACEMENT_3D ( 'NONE', #228, #334, #85 ) ;
#79 = PERSON_AND_ORGANIZATION ( #190, #335 ) ;
#80 = APPROVAL_PERSON_ORGANIZATION ( #88, #36, #200 ) ;
#81 = ORIENTED_EDGE ( 'NONE', *, *, #25, .T. ) ;
#82 = EDGE_LOOP ( 'NONE', ( #161 ) ) ;
#83 = EDGE_LOOP ( 'NONE', ( #323 ) ) ;
#84 = AXIS2_PLACEMENT_3D ( 'NONE', #305, #278, #362 ) ;
#85 = DIRECTION ( 'NONE',  ( -1.000000000000000000, 0.0000000000000000000, 3.516331370223267197E-15 ) ) ;
#86 = AXIS2_PLACEMENT_3D ( 'NONE', #314, #147, #257 ) ;
#87 = CC_DESIGN_DATE_AND_TIME_ASSIGNMENT ( #49, #168, ( #160 ) ) ;
#88 = PERSON_AND_ORGANIZATION ( #190, #335 ) ;
#89 = ORIENTED_EDGE ( 'NONE', *, *, #34, .T. ) ;
#90 = CARTESIAN_POINT ( 'NONE',  ( 0.0000000000000000000, 0.0000000000000000000, 0.0000000000000000000 ) ) ;
#91 = CARTESIAN_POINT ( 'NONE',  ( -0.1849999999999979161, 0.0000000000000000000, 0.4548210023282873715 ) ) ;
#92 = CARTESIAN_POINT ( 'NONE',  ( -0.3549999999999995381, 0.0000000000000000000, 0.1302516874173588468 ) ) ;
#93 = DIRECTION ( 'NONE',  ( -3.491481338843133355E-15, 0.0000000000000000000, -1.000000000000000000 ) ) ;
#94 = DIRECTION ( 'NONE',  ( -3.491481338843133355E-15, 0.0000000000000000000, -1.000000000000000000 ) ) ;
#95 = CARTESIAN_POINT ( 'NONE',  ( 4.547713359705330555E-16, 0.0000000000000000000, 0.1302516874173576256 ) ) ;
#96 = ADVANCED_FACE ( 'NONE', ( #172, #32 ), #145, .F. ) ;
#97 = DIRECTION ( 'NONE',  ( 3.491481338843133355E-15, 0.0000000000000000000, 1.000000000000000000 ) ) ;
#98 = CLOSED_SHELL ( 'NONE', ( #138, #211, #30, #96, #157, #109, #126, #315 ) ) ;
#99 = DIRECTION ( 'NONE',  ( 3.491481338843133355E-15, 0.0000000000000000000, 1.000000000000000000 ) ) ;
#100 = CIRCLE ( 'NONE', #202, 1.199999999999995293 ) ;
#101 = DIRECTION ( 'NONE',  ( 3.491481338843133355E-15, 0.0000000000000000000, 1.000000000000000000 ) ) ;
#102 = PERSON_AND_ORGANIZATION ( #190, #335 ) ;
#103 = EDGE_LOOP ( 'NONE', ( #54 ) ) ;
#104 = ADVANCED_FACE ( 'NONE', ( #344, #158 ), #175, .T. ) ;
#105 = PERSON_AND_ORGANIZATION ( #190, #335 ) ;
#106 = AXIS2_PLACEMENT_3D ( 'NONE', #110, #141, #251 ) ;
#107 = AXIS2_PLACEMENT_3D ( 'NONE', #343, #97, #183 ) ;
#108 = APPROVAL_STATUS ( 'not_yet_approved' ) ;
#109 = ADVANCED_FACE ( 'NONE', ( #275, #360 ), #57, .T. ) ;
#110 = CARTESIAN_POINT ( 'NONE',  ( 9.828637800567716275E-16, 0.0000000000000000000, 0.2815033748347151588 ) ) ;
#111 = AXIS2_PLACEMENT_3D ( 'NONE', #178, #101, #176 ) ;
#112 = CIRCLE ( 'NONE', #306, 0.2159999999999999420 ) ;
#113 = FACE_OUTER_BOUND ( 'NONE', #46, .T. ) ;
#114 = CALENDAR_DATE ( 2021, 17, 12 ) ;
#115 = DIRECTION ( 'NONE',  ( -3.491481338843133355E-15, 0.0000000000000000000, -1.000000000000000000 ) ) ;
#116 = DIRECTION ( 'NONE',  ( -1.000000000000000000, 0.0000000000000000000, 3.513618151573394540E-15 ) ) ;
#117 = ORIENTED_EDGE ( 'NONE', *, *, #227, .T. ) ;
#118 = CC_DESIGN_APPROVAL ( #36, ( #258 ) ) ;
#119 = DIRECTION ( 'NONE',  ( -1.000000000000000000, 0.0000000000000000000, 5.782411586589379332E-15 ) ) ;
#120 = CARTESIAN_POINT ( 'NONE',  ( 9.828637800567716275E-16, 0.0000000000000000000, 0.2815033748347151588 ) ) ;
#121 = CARTESIAN_POINT ( 'NONE',  ( -0.2159999999999999420, 0.0000000000000000000, 7.270549148779789493E-16 ) ) ;
#122 = FACE_OUTER_BOUND ( 'NONE', #143, .T. ) ;
#123 = LOCAL_TIME ( 8, 11, 11.00000000000000000, #298 ) ;
#124 = VERTEX_POINT ( 'NONE', #281 ) ;
#125 = CALENDAR_DATE ( 2021, 17, 12 ) ;
#126 = ADVANCED_FACE ( 'NONE', ( #7, #33 ), #312, .T. ) ;
#127 = DIRECTION ( 'NONE',  ( -1.000000000000000000, 0.0000000000000000000, 3.491481338843133355E-15 ) ) ;
#128 = CARTESIAN_POINT ( 'NONE',  ( 1.326762908760390423E-13, 0.0000000000000000000, 38.00000000000000000 ) ) ;
#129 = FACE_OUTER_BOUND ( 'NONE', #296, .T. ) ;
#130 = VERTEX_POINT ( 'NONE', #341 ) ;
#131 = DIRECTION ( 'NONE',  ( -1.000000000000000000, 0.0000000000000000000, 3.491481338843133355E-15 ) ) ;
#132 = ORIENTED_EDGE ( 'NONE', *, *, #358, .T. ) ;
#133 = COORDINATED_UNIVERSAL_TIME_OFFSET ( 1, 0, .AHEAD. ) ;
#134 = EDGE_LOOP ( 'NONE', ( #47 ) ) ;
#135 = AXIS2_PLACEMENT_3D ( 'NONE', #359, #115, #333 ) ;
#136 = CIRCLE ( 'NONE', #266, 1.499999999999995337 ) ;
#137 = COORDINATED_UNIVERSAL_TIME_OFFSET ( 1, 0, .AHEAD. ) ;
#138 = ADVANCED_FACE ( 'NONE', ( #342 ), #65, .F. ) ;
#139 = ORIENTED_EDGE ( 'NONE', *, *, #224, .F. ) ;
#140 = DIRECTION ( 'NONE',  ( -1.000000000000000000, 0.0000000000000000000, 3.512204220727690448E-15 ) ) ;
#141 = DIRECTION ( 'NONE',  ( -3.491481338843133355E-15, 0.0000000000000000000, -1.000000000000000000 ) ) ;
#142 = DATE_AND_TIME ( #125, #319 ) ;
#143 = EDGE_LOOP ( 'NONE', ( #144 ) ) ;
#144 = ORIENTED_EDGE ( 'NONE', *, *, #357, .T. ) ;
#145 = TOROIDAL_SURFACE ( 'NONE', #191, 1.184999999999999387, 1.000000000000000000 ) ;
#146 = VERTEX_POINT ( 'NONE', #262 ) ;
#147 = DIRECTION ( 'NONE',  ( -3.491481338843133355E-15, 0.0000000000000000000, -1.000000000000000000 ) ) ;
#148 = VERTEX_POINT ( 'NONE', #92 ) ;
#149 = VERTEX_POINT ( 'NONE', #121 ) ;
#150 = DIRECTION ( 'NONE',  ( -3.491481338843133355E-15, 0.0000000000000000000, -1.000000000000000000 ) ) ;
#151 = CIRCLE ( 'NONE', #351, 0.3549999999999999822 ) ;
#152 = CIRCLE ( 'NONE', #86, 0.2159999999999999420 ) ;
#153 = VERTEX_POINT ( 'NONE', #35 ) ;
#154 = CARTESIAN_POINT ( 'NONE',  ( 2.737076724886681407E-14, 0.0000000000000000000, 7.839299309540584737 ) ) ;
#155 = CARTESIAN_POINT ( 'NONE',  ( 1.587999042143142147E-15, 0.0000000000000000000, 0.4548210023282866499 ) ) ;
#156 = CARTESIAN_POINT ( 'NONE',  ( 2.737076724886681407E-14, 0.0000000000000000000, 7.839299309540584737 ) ) ;
#157 = ADVANCED_FACE ( 'NONE', ( #207, #317 ), #272, .T. ) ;
#158 = FACE_BOUND ( 'NONE', #22, .T. ) ;
#159 = CIRCLE ( 'NONE', #106, 0.2159999999999999698 ) ;
#160 = SECURITY_CLASSIFICATION ( '', '', #245 ) ;
#161 = ORIENTED_EDGE ( 'NONE', *, *, #350, .F. ) ;
#162 = SHAPE_DEFINITION_REPRESENTATION ( #37, #338 ) ;
#163 = DATE_AND_TIME ( #220, #123 ) ;
#164 = ORIENTED_EDGE ( 'NONE', *, *, #363, .T. ) ;
#165 = APPROVAL_PERSON_ORGANIZATION ( #241, #238, #329 ) ;
#166 = PERSON_AND_ORGANIZATION_ROLE ( 'creator' ) ;
#167 = CARTESIAN_POINT ( 'NONE',  ( 9.828637800567716275E-16, 0.0000000000000000000, 0.2815033748347151588 ) ) ;
#168 = DATE_TIME_ROLE ( 'classification_date' ) ;
#169 = ORIENTED_EDGE ( 'NONE', *, *, #173, .F. ) ;
#170 = APPROVAL_PERSON_ORGANIZATION ( #102, #212, #214 ) ;
#171 = FACE_OUTER_BOUND ( 'NONE', #215, .T. ) ;
#172 = FACE_OUTER_BOUND ( 'NONE', #280, .T. ) ;
#173 = EDGE_CURVE ( 'NONE', #153, #153, #152, .T. ) ;
#174 = VERTEX_POINT ( 'NONE', #39 ) ;
#175 = CONICAL_SURFACE ( 'NONE', #17, 0.2159999999999999420, 1.047197551196600518 ) ;
#176 = DIRECTION ( 'NONE',  ( 1.000000000000000000, 0.0000000000000000000, -3.491481338843133355E-15 ) ) ;
#177 = DIRECTION ( 'NONE',  ( -1.000000000000000000, 0.0000000000000000000, 3.491481338843132961E-15 ) ) ;
#178 = CARTESIAN_POINT ( 'NONE',  ( 9.828637800567716275E-16, 0.0000000000000000000, 0.2815033748347151588 ) ) ;
#179 = DIRECTION ( 'NONE',  ( -3.491481338843133355E-15, 0.0000000000000000000, -1.000000000000000000 ) ) ;
#180 = CARTESIAN_POINT ( 'NONE',  ( -0.2159999999999989984, 0.0000000000000000000, 0.2815033748347158804 ) ) ;
#181 = DIRECTION ( 'NONE',  ( -1.000000000000000000, 0.0000000000000000000, 3.491481338843133355E-15 ) ) ;
#182 = CARTESIAN_POINT ( 'NONE',  ( 0.0000000000000000000, 0.0000000000000000000, 0.0000000000000000000 ) ) ;
#183 = DIRECTION ( 'NONE',  ( 1.000000000000000000, 0.0000000000000000000, -3.512204220727690448E-15 ) ) ;
#184 = DIRECTION ( 'NONE',  ( -3.491481338843133355E-15, 0.0000000000000000000, -1.000000000000000000 ) ) ;
#185 = CC_DESIGN_PERSON_AND_ORGANIZATION_ASSIGNMENT ( #79, #216, ( #160 ) ) ;
#186 = ORIENTED_EDGE ( 'NONE', *, *, #357, .F. ) ;
#187 = APPROVAL_DATE_TIME ( #326, #238 ) ;
#188 = EDGE_LOOP ( 'NONE', ( #164 ) ) ;
#189 = CARTESIAN_POINT ( 'NONE',  ( 8.082897131146148612E-16, 0.0000000000000000000, 0.2315033748347151143 ) ) ;
#190 = PERSON ( 'UNSPECIFIED', 'UNSPECIFIED', 'UNSPECIFIED', ('UNSPECIFIED'), ('UNSPECIFIED'), ('UNSPECIFIED') ) ;
#191 = AXIS2_PLACEMENT_3D ( 'NONE', #74, #184, #45 ) ;
#192 = EDGE_LOOP ( 'NONE', ( #169 ) ) ;
#193 = EDGE_LOOP ( 'NONE', ( #139 ) ) ;
#194 = ORIENTED_EDGE ( 'NONE', *, *, #224, .T. ) ;
#195 = CIRCLE ( 'NONE', #41, 0.2159999999999999698 ) ;
#196 = CONICAL_SURFACE ( 'NONE', #107, 0.3549999999999999822, 1.047197551196599852 ) ;
#197 = ADVANCED_FACE ( 'NONE', ( #129 ), #5, .T. ) ;
#198 = CC_DESIGN_DATE_AND_TIME_ASSIGNMENT ( #142, #222, ( #258 ) ) ;
#199 = CYLINDRICAL_SURFACE ( 'NONE', #340, 0.2159999999999999420 ) ;
#200 = APPROVAL_ROLE ( '' ) ;
#201 = CIRCLE ( 'NONE', #242, 0.2190741737109294096 ) ;
#202 = AXIS2_PLACEMENT_3D ( 'NONE', #285, #38, #119 ) ;
#203 = CARTESIAN_POINT ( 'NONE',  ( 0.0000000000000000000, 0.0000000000000000000, 0.0000000000000000000 ) ) ;
#204 = CARTESIAN_POINT ( 'NONE',  ( -4.731839565957903391E-32, 0.0000000000000000000, -1.355252715606880543E-17 ) ) ;
#205 = DIRECTION ( 'NONE',  ( 1.000000000000000000, 0.0000000000000000000, -3.491481338843133355E-15 ) ) ;
#206 = FACE_OUTER_BOUND ( 'NONE', #239, .T. ) ;
#207 = FACE_BOUND ( 'NONE', #304, .T. ) ;
#208 = APPLICATION_PROTOCOL_DEFINITION ( 'international standard', 'config_control_design', 1994, #270 ) ;
#209 = DIRECTION ( 'NONE',  ( -1.000000000000000000, 0.0000000000000000000, 3.469446951953624444E-15 ) ) ;
#210 = LOCAL_TIME ( 8, 11, 11.00000000000000000, #137 ) ;
#211 = ADVANCED_FACE ( 'NONE', ( #256, #311 ), #253, .F. ) ;
#212 = APPROVAL ( #347, 'UNSPECIFIED' ) ;
#213 = EDGE_LOOP ( 'NONE', ( #246 ) ) ;
#214 = APPROVAL_ROLE ( '' ) ;
#215 = EDGE_LOOP ( 'NONE', ( #330 ) ) ;
#216 = PERSON_AND_ORGANIZATION_ROLE ( 'classification_officer' ) ;
#217 = ORIENTED_EDGE ( 'NONE', *, *, #350, .T. ) ;
#218 = DIRECTION ( 'NONE',  ( -3.491481338843133355E-15, 0.0000000000000000000, -1.000000000000000000 ) ) ;
#219 = AXIS2_PLACEMENT_3D ( 'NONE', #204, #99, #284 ) ;
#220 = CALENDAR_DATE ( 2021, 17, 12 ) ;
#221 = CC_DESIGN_PERSON_AND_ORGANIZATION_ASSIGNMENT ( #255, #10, ( #258 ) ) ;
#222 = DATE_TIME_ROLE ( 'creation_date' ) ;
#223 = CARTESIAN_POINT ( 'NONE',  ( 0.0000000000000000000, 0.0000000000000000000, 0.0000000000000000000 ) ) ;
#224 = EDGE_CURVE ( 'NONE', #146, #146, #100, .T. ) ;
#225 = EDGE_LOOP ( 'NONE', ( #81 ) ) ;
#226 = DIRECTION ( 'NONE',  ( -3.491481338843133355E-15, 0.0000000000000000000, -1.000000000000000000 ) ) ;
#227 = EDGE_CURVE ( 'NONE', #148, #148, #42, .T. ) ;
#228 = CARTESIAN_POINT ( 'NONE',  ( 1.587999042143142345E-15, 0.0000000000000000000, 0.4548210023282867054 ) ) ;
#229 = LOCAL_TIME ( 8, 11, 11.00000000000000000, #310 ) ;
#230 = FACE_OUTER_BOUND ( 'NONE', #192, .T. ) ;
#231 = DIRECTION ( 'NONE',  ( 3.491481338843133355E-15, 0.0000000000000000000, 1.000000000000000000 ) ) ;
#232 = CARTESIAN_POINT ( 'NONE',  ( -0.2159999999999997755, 0.0000000000000000000, 0.05000000000000076605 ) ) ;
#233 = PLANE ( 'NONE',  #219 ) ;
#234 = CIRCLE ( 'NONE', #69, 0.2159999999999999420 ) ;
#235 = FACE_OUTER_BOUND ( 'NONE', #225, .T. ) ;
#236 = DIRECTION ( 'NONE',  ( -3.491481338843133355E-15, 0.0000000000000000000, -1.000000000000000000 ) ) ;
#237 = VERTEX_POINT ( 'NONE', #339 ) ;
#238 = APPROVAL ( #108, 'UNSPECIFIED' ) ;
#239 = EDGE_LOOP ( 'NONE', ( #252 ) ) ;
#240 = DIRECTION ( 'NONE',  ( -3.491481338843133355E-15, 0.0000000000000000000, -1.000000000000000000 ) ) ;
#241 = PERSON_AND_ORGANIZATION ( #190, #335 ) ;
#242 = AXIS2_PLACEMENT_3D ( 'NONE', #24, #307, #60 ) ;
#243 =( GEOMETRIC_REPRESENTATION_CONTEXT ( 3 ) GLOBAL_UNCERTAINTY_ASSIGNED_CONTEXT ( ( #68 ) ) GLOBAL_UNIT_ASSIGNED_CONTEXT ( ( #64, #8, #283 ) ) REPRESENTATION_CONTEXT ( 'NONE', 'WORKASPACE' ) );
#244 = APPROVAL_DATE_TIME ( #163, #212 ) ;
#245 = SECURITY_CLASSIFICATION_LEVEL ( 'unclassified' ) ;
#246 = ORIENTED_EDGE ( 'NONE', *, *, #56, .T. ) ;
#247 = DIRECTION ( 'NONE',  ( -1.000000000000000000, 0.0000000000000000000, 3.491481338843133355E-15 ) ) ;
#248 = PRODUCT_DEFINITION_FORMATION_WITH_SPECIFIED_SOURCE ( 'ANY', '', #61, .NOT_KNOWN. ) ;
#249 = CYLINDRICAL_SURFACE ( 'NONE', #135, 0.1849999999999994982 ) ;
#250 = PERSON_AND_ORGANIZATION_ROLE ( 'design_owner' ) ;
#251 = DIRECTION ( 'NONE',  ( -1.000000000000000000, 0.0000000000000000000, 3.513618151573394540E-15 ) ) ;
#252 = ORIENTED_EDGE ( 'NONE', *, *, #227, .F. ) ;
#253 = TOROIDAL_SURFACE ( 'NONE', #2, 0.6849999999999996092, 0.5000000000000001110 ) ;
#254 = CARTESIAN_POINT ( 'NONE',  ( -1.499999999999863665, 0.0000000000000000000, 37.70000000000000284 ) ) ;
#255 = PERSON_AND_ORGANIZATION ( #190, #335 ) ;
#256 = FACE_OUTER_BOUND ( 'NONE', #271, .T. ) ;
#257 = DIRECTION ( 'NONE',  ( -1.000000000000000000, 0.0000000000000000000, 3.513618151573394934E-15 ) ) ;
#258 = PRODUCT_DEFINITION ( 'UNKNOWN', '', #248, #11 ) ;
#259 = VERTEX_POINT ( 'NONE', #254 ) ;
#260 = AXIS2_PLACEMENT_3D ( 'NONE', #154, #236, #209 ) ;
#261 = DIRECTION ( 'NONE',  ( -1.000000000000000000, 0.0000000000000000000, 3.512204220727690448E-15 ) ) ;
#262 = CARTESIAN_POINT ( 'NONE',  ( -1.199999999999862732, 0.0000000000000000000, 38.00000000000000711 ) ) ;
#263 = CYLINDRICAL_SURFACE ( 'NONE', #331, 0.3549999999999999822 ) ;
#264 = DIRECTION ( 'NONE',  ( 3.491481338843133355E-15, 0.0000000000000000000, 1.000000000000000000 ) ) ;
#265 = PLANE ( 'NONE',  #282 ) ;
#266 = AXIS2_PLACEMENT_3D ( 'NONE', #349, #218, #328 ) ;
#267 = CARTESIAN_POINT ( 'NONE',  ( 1.745740669421567171E-16, 0.0000000000000000000, 0.05000000000000001665 ) ) ;
#268 = EDGE_LOOP ( 'NONE', ( #132 ) ) ;
#269 = MECHANICAL_CONTEXT ( 'NONE', #270, 'mechanical' ) ;
#270 = APPLICATION_CONTEXT ( 'configuration controlled 3d designs of mechanical parts and assemblies' ) ;
#271 = EDGE_LOOP ( 'NONE', ( #274 ) ) ;
#272 = CONICAL_SURFACE ( 'NONE', #28, 1.499999999999995559, 0.2617993877991425800 ) ;
#273 = DIRECTION ( 'NONE',  ( -3.491481338843133355E-15, 0.0000000000000000000, -1.000000000000000000 ) ) ;
#274 = ORIENTED_EDGE ( 'NONE', *, *, #44, .F. ) ;
#275 = FACE_OUTER_BOUND ( 'NONE', #82, .T. ) ;
#276 = ORIENTED_EDGE ( 'NONE', *, *, #77, .T. ) ;
#277 = CIRCLE ( 'NONE', #260, 1.499999999999995559 ) ;
#278 = DIRECTION ( 'NONE',  ( -3.491481338843133355E-15, 0.0000000000000000000, -1.000000000000000000 ) ) ;
#279 = CC_DESIGN_PERSON_AND_ORGANIZATION_ASSIGNMENT ( #320, #250, ( #61 ) ) ;
#280 = EDGE_LOOP ( 'NONE', ( #19 ) ) ;
#281 = CARTESIAN_POINT ( 'NONE',  ( -1.499999999999968248, 0.0000000000000000000, 7.839299309540590066 ) ) ;
#282 = AXIS2_PLACEMENT_3D ( 'NONE', #71, #40, #131 ) ;
#283 =( NAMED_UNIT ( * ) SI_UNIT ( $, .STERADIAN. ) SOLID_ANGLE_UNIT ( ) );
#284 = DIRECTION ( 'NONE',  ( 1.000000000000000000, 0.0000000000000000000, -3.491481338843133355E-15 ) ) ;
#285 = CARTESIAN_POINT ( 'NONE',  ( 1.326762908760390423E-13, 0.0000000000000000000, 38.00000000000000000 ) ) ;
#286 = ADVANCED_FACE ( 'NONE', ( #206, #235 ), #263, .T. ) ;
#287 = VERTEX_POINT ( 'NONE', #91 ) ;
#288 = CIRCLE ( 'NONE', #78, 0.1849999999999994982 ) ;
#289 = FACE_BOUND ( 'NONE', #83, .T. ) ;
#290 = FACE_OUTER_BOUND ( 'NONE', #193, .T. ) ;
#291 = DIRECTION ( 'NONE',  ( -1.000000000000000000, 0.0000000000000000000, 3.491481338843133355E-15 ) ) ;
#292 = EDGE_LOOP ( 'NONE', ( #72 ) ) ;
#293 = CARTESIAN_POINT ( 'NONE',  ( 0.0000000000000000000, 0.0000000000000000000, 0.0000000000000000000 ) ) ;
#294 = AXIS2_PLACEMENT_3D ( 'NONE', #128, #94, #346 ) ;
#295 = CC_DESIGN_APPROVAL ( #212, ( #160 ) ) ;
#296 = EDGE_LOOP ( 'NONE', ( #353 ) ) ;
#297 = CC_DESIGN_PERSON_AND_ORGANIZATION_ASSIGNMENT ( #105, #21, ( #248 ) ) ;
#298 = COORDINATED_UNIVERSAL_TIME_OFFSET ( 1, 0, .AHEAD. ) ;
#299 = MANIFOLD_SOLID_BREP ( 'Corps-Déplacer/Copier1[2]', #355 ) ;
#300 = ADVANCED_FACE ( 'NONE', ( #289, #13 ), #196, .T. ) ;
#301 = CC_DESIGN_SECURITY_CLASSIFICATION ( #160, ( #248 ) ) ;
#302 = ORIENTED_EDGE ( 'NONE', *, *, #77, .F. ) ;
#303 = APPROVAL_STATUS ( 'not_yet_approved' ) ;
#304 = EDGE_LOOP ( 'NONE', ( #302 ) ) ;
#305 = CARTESIAN_POINT ( 'NONE',  ( 9.776147748760773395E-15, 0.0000000000000000000, 2.799999999999999822 ) ) ;
#306 = AXIS2_PLACEMENT_3D ( 'NONE', #318, #43, #52 ) ;
#307 = DIRECTION ( 'NONE',  ( -3.491481338843133355E-15, 0.0000000000000000000, -1.000000000000000000 ) ) ;
#308 = CARTESIAN_POINT ( 'NONE',  ( 5.280924440862389664E-16, 0.0000000000000000000, 0.1512516874173576442 ) ) ;
#309 = VERTEX_POINT ( 'NONE', #6 ) ;
#310 = COORDINATED_UNIVERSAL_TIME_OFFSET ( 1, 0, .AHEAD. ) ;
#311 = FACE_OUTER_BOUND ( 'NONE', #213, .T. ) ;
#312 = CONICAL_SURFACE ( 'NONE', #294, 1.199999999999995293, 0.7853981633974453924 ) ;
#313 = DIRECTION ( 'NONE',  ( -3.491481338843133355E-15, 0.0000000000000000000, -1.000000000000000000 ) ) ;
#314 = CARTESIAN_POINT ( 'NONE',  ( 8.082897131146148612E-16, 0.0000000000000000000, 0.2315033748347151143 ) ) ;
#315 = ADVANCED_FACE ( 'NONE', ( #290 ), #265, .F. ) ;
#316 = FACE_OUTER_BOUND ( 'NONE', #332, .T. ) ;
#317 = FACE_OUTER_BOUND ( 'NONE', #356, .T. ) ;
#318 = CARTESIAN_POINT ( 'NONE',  ( -9.463679131915806782E-32, 0.0000000000000000000, -2.710505431213761085E-17 ) ) ;
#319 = LOCAL_TIME ( 8, 11, 11.00000000000000000, #70 ) ;
#320 = PERSON_AND_ORGANIZATION ( #190, #335 ) ;
#321 = ADVANCED_FACE ( 'NONE', ( #316, #66 ), #16, .T. ) ;
#322 = CALENDAR_DATE ( 2021, 17, 12 ) ;
#323 = ORIENTED_EDGE ( 'NONE', *, *, #358, .F. ) ;
#324 = DIRECTION ( 'NONE',  ( 0.0000000000000000000, 0.0000000000000000000, 1.000000000000000000 ) ) ;
#325 = AXIS2_PLACEMENT_3D ( 'NONE', #293, #179, #181 ) ;
#326 = DATE_AND_TIME ( #76, #210 ) ;
#327 = ADVANCED_FACE ( 'NONE', ( #122 ), #233, .F. ) ;
#328 = DIRECTION ( 'NONE',  ( -1.000000000000000000, 0.0000000000000000000, 4.625929269271500311E-15 ) ) ;
#329 = APPROVAL_ROLE ( '' ) ;
#330 = ORIENTED_EDGE ( 'NONE', *, *, #56, .F. ) ;
#331 = AXIS2_PLACEMENT_3D ( 'NONE', #203, #313, #177 ) ;
#332 = EDGE_LOOP ( 'NONE', ( #186 ) ) ;
#333 = DIRECTION ( 'NONE',  ( -1.000000000000000000, 0.0000000000000000000, 3.491481338843133355E-15 ) ) ;
#334 = DIRECTION ( 'NONE',  ( -3.491481338843133355E-15, 0.0000000000000000000, -1.000000000000000000 ) ) ;
#335 = ORGANIZATION ( 'UNSPECIFIED', 'UNSPECIFIED', '' ) ;
#336 = EDGE_LOOP ( 'NONE', ( #194 ) ) ;
#337 = DIRECTION ( 'NONE',  ( -1.000000000000000000, 0.0000000000000000000, 3.513618151573394934E-15 ) ) ;
#338 = ADVANCED_BREP_SHAPE_REPRESENTATION ( '378080', ( #62, #299, #23 ), #243 ) ;
#339 = CARTESIAN_POINT ( 'NONE',  ( -0.2159999999999989984, 0.0000000000000000000, 0.2815033748347158804 ) ) ;
#340 = AXIS2_PLACEMENT_3D ( 'NONE', #223, #27, #247 ) ;
#341 = CARTESIAN_POINT ( 'NONE',  ( -0.1849999999999897282, 0.0000000000000000000, 2.800000000000000266 ) ) ;
#342 = FACE_OUTER_BOUND ( 'NONE', #103, .T. ) ;
#343 = CARTESIAN_POINT ( 'NONE',  ( 4.547713359705330555E-16, 0.0000000000000000000, 0.1302516874173576256 ) ) ;
#344 = FACE_OUTER_BOUND ( 'NONE', #292, .T. ) ;
#345 = DIRECTION ( 'NONE',  ( 1.000000000000000000, 0.0000000000000000000, -3.469446951953624444E-15 ) ) ;
#346 = DIRECTION ( 'NONE',  ( -1.000000000000000000, 0.0000000000000000000, 5.782411586589379332E-15 ) ) ;
#347 = APPROVAL_STATUS ( 'not_yet_approved' ) ;
#348 = EDGE_LOOP ( 'NONE', ( #117 ) ) ;
#349 = CARTESIAN_POINT ( 'NONE',  ( 1.316288464743861212E-13, 0.0000000000000000000, 37.69999999999999574 ) ) ;
#350 = EDGE_CURVE ( 'NONE', #124, #124, #277, .T. ) ;
#351 = AXIS2_PLACEMENT_3D ( 'NONE', #308, #53, #140 ) ;
#352 = AXIS2_PLACEMENT_3D ( 'NONE', #120, #231, #205 ) ;
#353 = ORIENTED_EDGE ( 'NONE', *, *, #20, .F. ) ;
#354 = FACE_OUTER_BOUND ( 'NONE', #75, .T. ) ;
#355 = CLOSED_SHELL ( 'NONE', ( #327, #321, #300, #286, #104, #14, #197 ) ) ;
#356 = EDGE_LOOP ( 'NONE', ( #217 ) ) ;
#357 = EDGE_CURVE ( 'NONE', #149, #149, #112, .T. ) ;
#358 = EDGE_CURVE ( 'NONE', #12, #12, #234, .T. ) ;
#359 = CARTESIAN_POINT ( 'NONE',  ( 0.0000000000000000000, 0.0000000000000000000, 0.0000000000000000000 ) ) ;
#360 = FACE_OUTER_BOUND ( 'NONE', #188, .T. ) ;
#361 = DATE_AND_TIME ( #114, #229 ) ;
#362 = DIRECTION ( 'NONE',  ( -1.000000000000000000, 0.0000000000000000000, 2.344220913482178263E-15 ) ) ;
#363 = EDGE_CURVE ( 'NONE', #259, #259, #136, .T. ) ;
ENDSEC;
END-ISO-10303-21;
