ISO-10303-21;
HEADER;
FILE_DESCRIPTION (( 'STEP AP203' ),
    '1' );
FILE_NAME ('378079.step',
    '2021-12-17T07:11:10',
    ( '' ),
    ( '' ),
    'SwSTEP 2.0',
    'SolidWorks 2019',
    '' );
FILE_SCHEMA (( 'CONFIG_CONTROL_DESIGN' ));
ENDSEC;

DATA;
#1 = AXIS2_PLACEMENT_3D ( 'NONE', #248, #362, #58 ) ;
#2 = DIRECTION ( 'NONE',  ( -3.491481338843133355E-15, 0.0000000000000000000, -1.000000000000000000 ) ) ;
#3 = ORIENTED_EDGE ( 'NONE', *, *, #17, .F. ) ;
#4 = VERTEX_POINT ( 'NONE', #39 ) ;
#5 = EDGE_LOOP ( 'NONE', ( #33 ) ) ;
#6 = CARTESIAN_POINT ( 'NONE',  ( 0.0000000000000000000, 0.0000000000000000000, 0.0000000000000000000 ) ) ;
#7 = CARTESIAN_POINT ( 'NONE',  ( -0.3969999999999997975, 0.0000000000000000000, 0.07700000000000138678 ) ) ;
#8 = PERSON_AND_ORGANIZATION ( #51, #127 ) ;
#9 = DIRECTION ( 'NONE',  ( -1.000000000000000000, 0.0000000000000000000, 3.513618151573394540E-15 ) ) ;
#10 = VERTEX_POINT ( 'NONE', #278 ) ;
#11 = FACE_OUTER_BOUND ( 'NONE', #217, .T. ) ;
#12 = APPROVAL_DATE_TIME ( #145, #267 ) ;
#13 = UNCERTAINTY_MEASURE_WITH_UNIT (LENGTH_MEASURE( 1.000000000000000082E-05 ), #259, 'distance_accuracy_value', 'NONE');
#14 = VERTEX_POINT ( 'NONE', #256 ) ;
#15 = CARTESIAN_POINT ( 'NONE',  ( 0.0000000000000000000, 0.0000000000000000000, 0.0000000000000000000 ) ) ;
#16 = EDGE_LOOP ( 'NONE', ( #147 ) ) ;
#17 = EDGE_CURVE ( 'NONE', #14, #14, #318, .T. ) ;
#18 = ORIENTED_EDGE ( 'NONE', *, *, #167, .T. ) ;
#19 = CARTESIAN_POINT ( 'NONE',  ( 0.0000000000000000000, 0.0000000000000000000, 0.0000000000000000000 ) ) ;
#20 = CC_DESIGN_PERSON_AND_ORGANIZATION_ASSIGNMENT ( #192, #361, ( #170 ) ) ;
#21 = LOCAL_TIME ( 8, 11, 10.00000000000000000, #182 ) ;
#22 = ORIENTED_EDGE ( 'NONE', *, *, #221, .T. ) ;
#23 = SECURITY_CLASSIFICATION_LEVEL ( 'unclassified' ) ;
#24 = ADVANCED_FACE ( 'NONE', ( #242, #313 ), #346, .T. ) ;
#25 = COORDINATED_UNIVERSAL_TIME_OFFSET ( 1, 0, .AHEAD. ) ;
#26 = AXIS2_PLACEMENT_3D ( 'NONE', #156, #224, #188 ) ;
#27 = CC_DESIGN_APPROVAL ( #241, ( #178 ) ) ;
#28 = EDGE_CURVE ( 'NONE', #168, #168, #353, .T. ) ;
#29 = AXIS2_PLACEMENT_3D ( 'NONE', #343, #340, #204 ) ;
#30 = ADVANCED_FACE ( 'NONE', ( #289, #309 ), #336, .T. ) ;
#31 = APPROVAL ( #246, 'UNSPECIFIED' ) ;
#32 = APPROVAL_PERSON_ORGANIZATION ( #293, #241, #75 ) ;
#33 = ORIENTED_EDGE ( 'NONE', *, *, #36, .T. ) ;
#34 = DIRECTION ( 'NONE',  ( -1.000000000000000000, 0.0000000000000000000, 2.409338161078901942E-15 ) ) ;
#35 = VERTEX_POINT ( 'NONE', #149 ) ;
#36 = EDGE_CURVE ( 'NONE', #282, #282, #207, .T. ) ;
#37 = CARTESIAN_POINT ( 'NONE',  ( 1.326762908760390423E-13, 0.0000000000000000000, 38.00000000000000000 ) ) ;
#38 = DIRECTION ( 'NONE',  ( 3.491481338843133355E-15, 0.0000000000000000000, 1.000000000000000000 ) ) ;
#39 = CARTESIAN_POINT ( 'NONE',  ( -1.199999999999862732, 0.0000000000000000000, 38.00000000000000711 ) ) ;
#40 = DIRECTION ( 'NONE',  ( -1.000000000000000000, 0.0000000000000000000, 3.550284192018024339E-15 ) ) ;
#41 = TOROIDAL_SURFACE ( 'NONE', #137, 0.8599999999999996536, 0.5000000000000000000 ) ;
#42 = CALENDAR_DATE ( 2021, 17, 12 ) ;
#43 = FACE_OUTER_BOUND ( 'NONE', #328, .T. ) ;
#44 = EDGE_CURVE ( 'NONE', #10, #10, #344, .T. ) ;
#45 = EDGE_LOOP ( 'NONE', ( #350 ) ) ;
#46 = AXIS2_PLACEMENT_3D ( 'NONE', #6, #255, #112 ) ;
#47 = PERSON_AND_ORGANIZATION_ROLE ( 'creator' ) ;
#48 = ADVANCED_BREP_SHAPE_REPRESENTATION ( '378079', ( #288, #59, #235 ), #283 ) ;
#49 = DIRECTION ( 'NONE',  ( 0.0000000000000000000, 0.0000000000000000000, 1.000000000000000000 ) ) ;
#50 = CIRCLE ( 'NONE', #1, 0.3970000000000000751 ) ;
#51 = PERSON ( 'UNSPECIFIED', 'UNSPECIFIED', 'UNSPECIFIED', ('UNSPECIFIED'), ('UNSPECIFIED'), ('UNSPECIFIED') ) ;
#52 = DIRECTION ( 'NONE',  ( -3.491481338843133355E-15, 0.0000000000000000000, -1.000000000000000000 ) ) ;
#53 = CALENDAR_DATE ( 2021, 17, 12 ) ;
#54 = EDGE_LOOP ( 'NONE', ( #268 ) ) ;
#55 = CONICAL_SURFACE ( 'NONE', #88, 1.199999999999995293, 0.7853981633974453924 ) ;
#56 = ADVANCED_FACE ( 'NONE', ( #206, #311 ), #148, .T. ) ;
#57 = FACE_OUTER_BOUND ( 'NONE', #144, .T. ) ;
#58 = DIRECTION ( 'NONE',  ( -1.000000000000000000, 0.0000000000000000000, 3.482009496017677155E-15 ) ) ;
#59 = MANIFOLD_SOLID_BREP ( 'Corps-Déplacer/Copier1[2]', #115 ) ;
#60 = AXIS2_PLACEMENT_3D ( 'NONE', #339, #91, #84 ) ;
#61 = CARTESIAN_POINT ( 'NONE',  ( 1.860554302912722406E-15, 0.0000000000000000000, 0.5328839315891054085 ) ) ;
#62 = APPLICATION_CONTEXT ( 'configuration controlled 3d designs of mechanical parts and assemblies' ) ;
#63 = DATE_AND_TIME ( #85, #21 ) ;
#64 = CARTESIAN_POINT ( 'NONE',  ( 1.396592535537253342E-14, 0.0000000000000000000, 4.000000000000000000 ) ) ;
#65 = CARTESIAN_POINT ( 'NONE',  ( -0.5399999999999992584, 0.0000000000000000000, 0.1845610884941180085 ) ) ;
#66 = DIRECTION ( 'NONE',  ( 3.491481338843133355E-15, 0.0000000000000000000, 1.000000000000000000 ) ) ;
#67 = DIRECTION ( 'NONE',  ( -3.491481338843133355E-15, 0.0000000000000000000, -1.000000000000000000 ) ) ;
#68 = AXIS2_PLACEMENT_3D ( 'NONE', #111, #258, #304 ) ;
#69 = DIRECTION ( 'NONE',  ( -3.491481338843133355E-15, 0.0000000000000000000, -1.000000000000000000 ) ) ;
#70 = DIRECTION ( 'NONE',  ( -1.000000000000000000, 0.0000000000000000000, 3.491481338843132961E-15 ) ) ;
#71 = PERSON_AND_ORGANIZATION_ROLE ( 'design_owner' ) ;
#72 = DIRECTION ( 'NONE',  ( -1.000000000000000000, 0.0000000000000000000, 3.513618151573392962E-15 ) ) ;
#73 = AXIS2_PLACEMENT_3D ( 'NONE', #64, #305, #34 ) ;
#74 = EDGE_LOOP ( 'NONE', ( #337 ) ) ;
#75 = APPROVAL_ROLE ( '' ) ;
#76 = ADVANCED_FACE ( 'NONE', ( #43, #239 ), #125, .T. ) ;
#77 = APPROVAL_DATE_TIME ( #357, #31 ) ;
#78 = AXIS2_PLACEMENT_3D ( 'NONE', #123, #87, #287 ) ;
#79 = EDGE_LOOP ( 'NONE', ( #138 ) ) ;
#80 = CARTESIAN_POINT ( 'NONE',  ( 1.316288464743861212E-13, 0.0000000000000000000, 37.69999999999999574 ) ) ;
#81 = FACE_OUTER_BOUND ( 'NONE', #79, .T. ) ;
#82 = DIRECTION ( 'NONE',  ( -1.000000000000000000, 0.0000000000000000000, 5.782411586589379332E-15 ) ) ;
#83 = EDGE_LOOP ( 'NONE', ( #333 ) ) ;
#84 = DIRECTION ( 'NONE',  ( -1.000000000000000000, 0.0000000000000000000, 4.402022745213697673E-15 ) ) ;
#85 = CALENDAR_DATE ( 2021, 17, 12 ) ;
#86 = CARTESIAN_POINT ( 'NONE',  ( 1.201496159236485985E-15, 0.0000000000000000000, 0.3441221769882319981 ) ) ;
#87 = DIRECTION ( 'NONE',  ( 3.491481338843133355E-15, 0.0000000000000000000, 1.000000000000000000 ) ) ;
#88 = AXIS2_PLACEMENT_3D ( 'NONE', #136, #124, #82 ) ;
#89 = CARTESIAN_POINT ( 'NONE',  ( -0.3940741737109150211, 0.0000000000000000000, 4.258819045102516299 ) ) ;
#90 = EDGE_LOOP ( 'NONE', ( #109 ) ) ;
#91 = DIRECTION ( 'NONE',  ( -3.491481338843133355E-15, 0.0000000000000000000, -1.000000000000000000 ) ) ;
#92 = FACE_OUTER_BOUND ( 'NONE', #237, .T. ) ;
#93 = VERTEX_POINT ( 'NONE', #230 ) ;
#94 = FACE_OUTER_BOUND ( 'NONE', #134, .T. ) ;
#95 = AXIS2_PLACEMENT_3D ( 'NONE', #19, #96, #70 ) ;
#96 = DIRECTION ( 'NONE',  ( -3.491481338843133355E-15, 0.0000000000000000000, -1.000000000000000000 ) ) ;
#97 = CIRCLE ( 'NONE', #215, 1.499999999999995337 ) ;
#98 = CARTESIAN_POINT ( 'NONE',  ( 0.0000000000000000000, 0.0000000000000000000, 0.0000000000000000000 ) ) ;
#99 = FACE_OUTER_BOUND ( 'NONE', #233, .T. ) ;
#100 = APPROVAL_DATE_TIME ( #164, #241 ) ;
#101 = EDGE_CURVE ( 'NONE', #93, #93, #243, .T. ) ;
#102 = ORIENTED_EDGE ( 'NONE', *, *, #315, .F. ) ;
#103 = AXIS2_PLACEMENT_3D ( 'NONE', #141, #38, #146 ) ;
#104 = CC_DESIGN_PERSON_AND_ORGANIZATION_ASSIGNMENT ( #326, #71, ( #277 ) ) ;
#105 = ORIENTED_EDGE ( 'NONE', *, *, #221, .F. ) ;
#106 = CIRCLE ( 'NONE', #163, 0.3970000000000000195 ) ;
#107 = CYLINDRICAL_SURFACE ( 'NONE', #320, 0.3970000000000000195 ) ;
#108 = AXIS2_PLACEMENT_3D ( 'NONE', #177, #263, #40 ) ;
#109 = ORIENTED_EDGE ( 'NONE', *, *, #315, .T. ) ;
#110 = EDGE_LOOP ( 'NONE', ( #162 ) ) ;
#111 = CARTESIAN_POINT ( 'NONE',  ( 5.571045628827040227E-16, 0.0000000000000000000, 0.1595610884941160712 ) ) ;
#112 = DIRECTION ( 'NONE',  ( -1.000000000000000000, 0.0000000000000000000, 3.491481338843133355E-15 ) ) ;
#113 = VERTEX_POINT ( 'NONE', #143 ) ;
#114 = CARTESIAN_POINT ( 'NONE',  ( 2.928022734918630673E-14, 0.0000000000000000000, 8.386190418216013853 ) ) ;
#115 = CLOSED_SHELL ( 'NONE', ( #225, #308, #232, #281, #30, #24, #208 ) ) ;
#116 = CONICAL_SURFACE ( 'NONE', #68, 0.5400000000000001465, 1.047197551196600074 ) ;
#117 = VERTEX_POINT ( 'NONE', #89 ) ;
#118 = FACE_BOUND ( 'NONE', #74, .T. ) ;
#119 = EDGE_CURVE ( 'NONE', #205, #205, #106, .T. ) ;
#120 = SHAPE_DEFINITION_REPRESENTATION ( #191, #48 ) ;
#121 = PLANE ( 'NONE',  #103 ) ;
#122 = PLANE ( 'NONE',  #29 ) ;
#123 = CARTESIAN_POINT ( 'NONE',  ( 1.201496159236485985E-15, 0.0000000000000000000, 0.3441221769882319981 ) ) ;
#124 = DIRECTION ( 'NONE',  ( -3.491481338843133355E-15, 0.0000000000000000000, -1.000000000000000000 ) ) ;
#125 = CYLINDRICAL_SURFACE ( 'NONE', #250, 1.499999999999995337 ) ;
#126 = ORIENTED_EDGE ( 'NONE', *, *, #28, .T. ) ;
#127 = ORGANIZATION ( 'UNSPECIFIED', 'UNSPECIFIED', '' ) ;
#128 = EDGE_LOOP ( 'NONE', ( #102 ) ) ;
#129 = CC_DESIGN_DATE_AND_TIME_ASSIGNMENT ( #63, #338, ( #170 ) ) ;
#130 = APPROVAL_ROLE ( '' ) ;
#131 = EDGE_LOOP ( 'NONE', ( #158 ) ) ;
#132 = ADVANCED_FACE ( 'NONE', ( #360, #57 ), #303, .F. ) ;
#133 = CARTESIAN_POINT ( 'NONE',  ( 1.860554302912722406E-15, 0.0000000000000000000, 0.5328839315891054085 ) ) ;
#134 = EDGE_LOOP ( 'NONE', ( #322 ) ) ;
#135 = AXIS2_PLACEMENT_3D ( 'NONE', #347, #67, #152 ) ;
#136 = CARTESIAN_POINT ( 'NONE',  ( 1.326762908760390423E-13, 0.0000000000000000000, 38.00000000000000000 ) ) ;
#137 = AXIS2_PLACEMENT_3D ( 'NONE', #61, #172, #176 ) ;
#138 = ORIENTED_EDGE ( 'NONE', *, *, #354, .F. ) ;
#139 = VERTEX_POINT ( 'NONE', #7 ) ;
#140 = ORIENTED_EDGE ( 'NONE', *, *, #194, .F. ) ;
#141 = CARTESIAN_POINT ( 'NONE',  ( 0.0000000000000000000, 0.0000000000000000000, 0.0000000000000000000 ) ) ;
#142 = CYLINDRICAL_SURFACE ( 'NONE', #46, 0.3599999999999995426 ) ;
#143 = CARTESIAN_POINT ( 'NONE',  ( -0.3969999999999987983, 0.0000000000000000000, 0.3441221769882333859 ) ) ;
#144 = EDGE_LOOP ( 'NONE', ( #297 ) ) ;
#145 = DATE_AND_TIME ( #42, #358 ) ;
#146 = DIRECTION ( 'NONE',  ( 1.000000000000000000, 0.0000000000000000000, -3.491481338843133355E-15 ) ) ;
#147 = ORIENTED_EDGE ( 'NONE', *, *, #28, .F. ) ;
#148 = CONICAL_SURFACE ( 'NONE', #226, 1.499999999999995559, 0.2617993877991425244 ) ;
#149 = CARTESIAN_POINT ( 'NONE',  ( -0.3599999999999855538, 0.0000000000000000000, 4.000000000000000888 ) ) ;
#150 = DIRECTION ( 'NONE',  ( -1.000000000000000000, 0.0000000000000000000, 3.469446951953624444E-15 ) ) ;
#151 = FACE_OUTER_BOUND ( 'NONE', #45, .T. ) ;
#152 = DIRECTION ( 'NONE',  ( -1.000000000000000000, 0.0000000000000000000, 3.491481338843133355E-15 ) ) ;
#153 = DIRECTION ( 'NONE',  ( -1.000000000000000000, 0.0000000000000000000, 3.614007241618352321E-15 ) ) ;
#154 =( NAMED_UNIT ( * ) SI_UNIT ( $, .STERADIAN. ) SOLID_ANGLE_UNIT ( ) );
#155 = ADVANCED_FACE ( 'NONE', ( #81 ), #122, .F. ) ;
#156 = CARTESIAN_POINT ( 'NONE',  ( 9.326520961455645746E-16, 0.0000000000000000000, 0.2671221769882319852 ) ) ;
#157 = CLOSED_SHELL ( 'NONE', ( #165, #363, #181, #132, #56, #76, #332, #155 ) ) ;
#158 = ORIENTED_EDGE ( 'NONE', *, *, #119, .T. ) ;
#159 = PERSON_AND_ORGANIZATION ( #51, #127 ) ;
#160 = DATE_AND_TIME ( #316, #271 ) ;
#161 = PERSON_AND_ORGANIZATION ( #51, #127 ) ;
#162 = ORIENTED_EDGE ( 'NONE', *, *, #44, .T. ) ;
#163 = AXIS2_PLACEMENT_3D ( 'NONE', #214, #324, #273 ) ;
#164 = DATE_AND_TIME ( #53, #327 ) ;
#165 = ADVANCED_FACE ( 'NONE', ( #262 ), #310, .F. ) ;
#166 = AXIS2_PLACEMENT_3D ( 'NONE', #229, #174, #9 ) ;
#167 = EDGE_CURVE ( 'NONE', #35, #35, #245, .T. ) ;
#168 = VERTEX_POINT ( 'NONE', #302 ) ;
#169 = ORIENTED_EDGE ( 'NONE', *, *, #323, .T. ) ;
#170 = SECURITY_CLASSIFICATION ( '', '', #23 ) ;
#171 = FACE_OUTER_BOUND ( 'NONE', #325, .T. ) ;
#172 = DIRECTION ( 'NONE',  ( -3.491481338843133355E-15, 0.0000000000000000000, -1.000000000000000000 ) ) ;
#173 = FACE_OUTER_BOUND ( 'NONE', #298, .T. ) ;
#174 = DIRECTION ( 'NONE',  ( -3.491481338843133355E-15, 0.0000000000000000000, -1.000000000000000000 ) ) ;
#175 = DIRECTION ( 'NONE',  ( 1.000000000000000000, 0.0000000000000000000, -3.469446951953624444E-15 ) ) ;
#176 = DIRECTION ( 'NONE',  ( -1.000000000000000000, 0.0000000000000000000, 3.491481338843133355E-15 ) ) ;
#177 = CARTESIAN_POINT ( 'NONE',  ( 9.326520961455645746E-16, 0.0000000000000000000, 0.2671221769882319852 ) ) ;
#178 = PRODUCT_DEFINITION_FORMATION_WITH_SPECIFIED_SOURCE ( 'ANY', '', #277, .NOT_KNOWN. ) ;
#179 = CARTESIAN_POINT ( 'NONE',  ( 1.201496159236485985E-15, 0.0000000000000000000, 0.3441221769882319981 ) ) ;
#180 = DIRECTION ( 'NONE',  ( -3.491481338843133355E-15, 0.0000000000000000000, -1.000000000000000000 ) ) ;
#181 = ADVANCED_FACE ( 'NONE', ( #99, #171 ), #142, .T. ) ;
#182 = COORDINATED_UNIVERSAL_TIME_OFFSET ( 1, 0, .AHEAD. ) ;
#183 = DIRECTION ( 'NONE',  ( -1.000000000000000000, 0.0000000000000000000, 3.491481338843132961E-15 ) ) ;
#184 = PERSON_AND_ORGANIZATION ( #51, #127 ) ;
#185 = APPLICATION_CONTEXT ( 'configuration controlled 3d designs of mechanical parts and assemblies' ) ;
#186 = COORDINATED_UNIVERSAL_TIME_OFFSET ( 1, 0, .AHEAD. ) ;
#187 = ORIENTED_EDGE ( 'NONE', *, *, #36, .F. ) ;
#188 = DIRECTION ( 'NONE',  ( -1.000000000000000000, 0.0000000000000000000, 3.550284192018024339E-15 ) ) ;
#189 = CC_DESIGN_APPROVAL ( #31, ( #348 ) ) ;
#190 = CALENDAR_DATE ( 2021, 17, 12 ) ;
#191 = PRODUCT_DEFINITION_SHAPE ( 'NONE', 'NONE',  #348 ) ;
#192 = PERSON_AND_ORGANIZATION ( #51, #127 ) ;
#193 = CIRCLE ( 'NONE', #60, 0.3940741737109298981 ) ;
#194 = EDGE_CURVE ( 'NONE', #306, #306, #356, .T. ) ;
#195 = DIRECTION ( 'NONE',  ( -1.000000000000000000, 0.0000000000000000000, 3.491481338843132961E-15 ) ) ;
#196 = CC_DESIGN_APPROVAL ( #267, ( #170 ) ) ;
#197 = FACE_OUTER_BOUND ( 'NONE', #110, .T. ) ;
#198 = FACE_OUTER_BOUND ( 'NONE', #314, .T. ) ;
#199 = CARTESIAN_POINT ( 'NONE',  ( 2.928022734918630673E-14, 0.0000000000000000000, 8.386190418216013853 ) ) ;
#200 = ORIENTED_EDGE ( 'NONE', *, *, #17, .T. ) ;
#201 = COORDINATED_UNIVERSAL_TIME_OFFSET ( 1, 0, .AHEAD. ) ;
#202 = DIRECTION ( 'NONE',  ( 3.491481338843133355E-15, 0.0000000000000000000, 1.000000000000000000 ) ) ;
#203 = DIRECTION ( 'NONE',  ( -1.000000000000000000, 0.0000000000000000000, 3.491481338843132566E-15 ) ) ;
#204 = DIRECTION ( 'NONE',  ( -1.000000000000000000, 0.0000000000000000000, 3.491481338843133355E-15 ) ) ;
#205 = VERTEX_POINT ( 'NONE', #276 ) ;
#206 = FACE_BOUND ( 'NONE', #54, .T. ) ;
#207 = CIRCLE ( 'NONE', #249, 1.499999999999995559 ) ;
#208 = ADVANCED_FACE ( 'NONE', ( #173 ), #301, .T. ) ;
#209 = CC_DESIGN_PERSON_AND_ORGANIZATION_ASSIGNMENT ( #161, #295, ( #348 ) ) ;
#210 = DIRECTION ( 'NONE',  ( -3.491481338843133355E-15, 0.0000000000000000000, -1.000000000000000000 ) ) ;
#211 = PERSON_AND_ORGANIZATION ( #51, #127 ) ;
#212 = APPLICATION_PROTOCOL_DEFINITION ( 'international standard', 'config_control_design', 1994, #62 ) ;
#213 = AXIS2_PLACEMENT_3D ( 'NONE', #133, #180, #153 ) ;
#214 = CARTESIAN_POINT ( 'NONE',  ( 1.201496159236485985E-15, 0.0000000000000000000, 0.3441221769882319981 ) ) ;
#215 = AXIS2_PLACEMENT_3D ( 'NONE', #80, #69, #253 ) ;
#216 = APPLICATION_PROTOCOL_DEFINITION ( 'international standard', 'config_control_design', 1994, #185 ) ;
#217 = EDGE_LOOP ( 'NONE', ( #227 ) ) ;
#218 = PRODUCT_RELATED_PRODUCT_CATEGORY ( 'detail', '', ( #277 ) ) ;
#219 = DATE_TIME_ROLE ( 'creation_date' ) ;
#220 = COORDINATED_UNIVERSAL_TIME_OFFSET ( 1, 0, .AHEAD. ) ;
#221 = EDGE_CURVE ( 'NONE', #113, #113, #274, .T. ) ;
#222 = AXIS2_PLACEMENT_3D ( 'NONE', #15, #342, #203 ) ;
#223 = EDGE_LOOP ( 'NONE', ( #270 ) ) ;
#224 = DIRECTION ( 'NONE',  ( -3.491481338843133355E-15, 0.0000000000000000000, -1.000000000000000000 ) ) ;
#225 = ADVANCED_FACE ( 'NONE', ( #197 ), #121, .F. ) ;
#226 = AXIS2_PLACEMENT_3D ( 'NONE', #199, #66, #175 ) ;
#227 = ORIENTED_EDGE ( 'NONE', *, *, #323, .F. ) ;
#228 = EDGE_LOOP ( 'NONE', ( #286 ) ) ;
#229 = CARTESIAN_POINT ( 'NONE',  ( 6.443915963537825538E-16, 0.0000000000000000000, 0.1845610884941161212 ) ) ;
#230 = CARTESIAN_POINT ( 'NONE',  ( -0.5399999999999995914, 0.0000000000000000000, 0.1595610884941179586 ) ) ;
#231 = DIRECTION ( 'NONE',  ( -3.491481338843133355E-15, 0.0000000000000000000, -1.000000000000000000 ) ) ;
#232 = ADVANCED_FACE ( 'NONE', ( #254, #151 ), #116, .T. ) ;
#233 = EDGE_LOOP ( 'NONE', ( #3 ) ) ;
#234 = APPROVAL_STATUS ( 'not_yet_approved' ) ;
#235 = AXIS2_PLACEMENT_3D ( 'NONE', #321, #49, #290 ) ;
#236 = FACE_OUTER_BOUND ( 'NONE', #223, .T. ) ;
#237 = EDGE_LOOP ( 'NONE', ( #351 ) ) ;
#238 = CARTESIAN_POINT ( 'NONE',  ( -1.499999999999966249, 0.0000000000000000000, 8.386190418216019182 ) ) ;
#239 = FACE_OUTER_BOUND ( 'NONE', #334, .T. ) ;
#240 = DIRECTION ( 'NONE',  ( -3.491481338843133355E-15, 0.0000000000000000000, -1.000000000000000000 ) ) ;
#241 = APPROVAL ( #349, 'UNSPECIFIED' ) ;
#242 = FACE_OUTER_BOUND ( 'NONE', #16, .T. ) ;
#243 = CIRCLE ( 'NONE', #247, 0.5400000000000001465 ) ;
#244 = DIRECTION ( 'NONE',  ( -3.491481338843133355E-15, 0.0000000000000000000, -1.000000000000000000 ) ) ;
#245 = CIRCLE ( 'NONE', #73, 0.3599999999999995426 ) ;
#246 = APPROVAL_STATUS ( 'not_yet_approved' ) ;
#247 = AXIS2_PLACEMENT_3D ( 'NONE', #265, #52, #72 ) ;
#248 = CARTESIAN_POINT ( 'NONE',  ( 2.688440630909212624E-16, 0.0000000000000000000, 0.07699999999999999900 ) ) ;
#249 = AXIS2_PLACEMENT_3D ( 'NONE', #114, #231, #150 ) ;
#250 = AXIS2_PLACEMENT_3D ( 'NONE', #279, #244, #352 ) ;
#251 = AXIS2_PLACEMENT_3D ( 'NONE', #86, #285, #284 ) ;
#252 = DIRECTION ( 'NONE',  ( -1.000000000000000000, 0.0000000000000000000, 5.782411586589379332E-15 ) ) ;
#253 = DIRECTION ( 'NONE',  ( -1.000000000000000000, 0.0000000000000000000, 4.625929269271500311E-15 ) ) ;
#254 = FACE_BOUND ( 'NONE', #128, .T. ) ;
#255 = DIRECTION ( 'NONE',  ( -3.491481338843133355E-15, 0.0000000000000000000, -1.000000000000000000 ) ) ;
#256 = CARTESIAN_POINT ( 'NONE',  ( -0.3599999999999977107, 0.0000000000000000000, 0.5328839315891067407 ) ) ;
#257 = CIRCLE ( 'NONE', #294, 1.199999999999995293 ) ;
#258 = DIRECTION ( 'NONE',  ( 3.491481338843133355E-15, 0.0000000000000000000, 1.000000000000000000 ) ) ;
#259 =( LENGTH_UNIT ( ) NAMED_UNIT ( * ) SI_UNIT ( .MILLI., .METRE. ) );
#260 = APPROVAL_ROLE ( '' ) ;
#261 = CYLINDRICAL_SURFACE ( 'NONE', #222, 0.5400000000000000355 ) ;
#262 = FACE_OUTER_BOUND ( 'NONE', #131, .T. ) ;
#263 = DIRECTION ( 'NONE',  ( -3.491481338843133355E-15, 0.0000000000000000000, -1.000000000000000000 ) ) ;
#264 = APPROVAL_PERSON_ORGANIZATION ( #8, #267, #260 ) ;
#265 = CARTESIAN_POINT ( 'NONE',  ( 5.571045628827040227E-16, 0.0000000000000000000, 0.1595610884941160712 ) ) ;
#266 = PERSON_AND_ORGANIZATION_ROLE ( 'design_supplier' ) ;
#267 = APPROVAL ( #234, 'UNSPECIFIED' ) ;
#268 = ORIENTED_EDGE ( 'NONE', *, *, #359, .F. ) ;
#269 =( NAMED_UNIT ( * ) PLANE_ANGLE_UNIT ( ) SI_UNIT ( $, .RADIAN. ) );
#270 = ORIENTED_EDGE ( 'NONE', *, *, #101, .F. ) ;
#271 = LOCAL_TIME ( 8, 11, 10.00000000000000000, #186 ) ;
#272 = MECHANICAL_CONTEXT ( 'NONE', #185, 'mechanical' ) ;
#273 = DIRECTION ( 'NONE',  ( -1.000000000000000000, 0.0000000000000000000, 3.550284192018024339E-15 ) ) ;
#274 = CIRCLE ( 'NONE', #251, 0.3970000000000000195 ) ;
#275 = CC_DESIGN_PERSON_AND_ORGANIZATION_ASSIGNMENT ( #184, #47, ( #178 ) ) ;
#276 = CARTESIAN_POINT ( 'NONE',  ( -0.3969999999999987983, 0.0000000000000000000, 0.3441221769882333859 ) ) ;
#277 = PRODUCT ( '378079', '378079', '', ( #272 ) ) ;
#278 = CARTESIAN_POINT ( 'NONE',  ( -0.3970000000000000195, 0.0000000000000000000, 1.386118091520723926E-15 ) ) ;
#279 = CARTESIAN_POINT ( 'NONE',  ( 0.0000000000000000000, 0.0000000000000000000, 0.0000000000000000000 ) ) ;
#280 = DIRECTION ( 'NONE',  ( 1.000000000000000000, 0.0000000000000000000, -3.491481338843133355E-15 ) ) ;
#281 = ADVANCED_FACE ( 'NONE', ( #236, #92 ), #261, .T. ) ;
#282 = VERTEX_POINT ( 'NONE', #238 ) ;
#283 =( GEOMETRIC_REPRESENTATION_CONTEXT ( 3 ) GLOBAL_UNCERTAINTY_ASSIGNED_CONTEXT ( ( #13 ) ) GLOBAL_UNIT_ASSIGNED_CONTEXT ( ( #259, #269, #154 ) ) REPRESENTATION_CONTEXT ( 'NONE', 'WORKASPACE' ) );
#284 = DIRECTION ( 'NONE',  ( -1.000000000000000000, 0.0000000000000000000, 3.550284192018024339E-15 ) ) ;
#285 = DIRECTION ( 'NONE',  ( -3.491481338843133355E-15, 0.0000000000000000000, -1.000000000000000000 ) ) ;
#286 = ORIENTED_EDGE ( 'NONE', *, *, #119, .F. ) ;
#287 = DIRECTION ( 'NONE',  ( 1.000000000000000000, 0.0000000000000000000, -3.491481338843133355E-15 ) ) ;
#288 = MANIFOLD_SOLID_BREP ( 'Corps-Déplacer/Copier1[1]', #157 ) ;
#289 = FACE_OUTER_BOUND ( 'NONE', #355, .T. ) ;
#290 = DIRECTION ( 'NONE',  ( 1.000000000000000000, 0.0000000000000000000, 0.0000000000000000000 ) ) ;
#291 = CC_DESIGN_SECURITY_CLASSIFICATION ( #170, ( #178 ) ) ;
#292 = CC_DESIGN_DATE_AND_TIME_ASSIGNMENT ( #160, #219, ( #348 ) ) ;
#293 = PERSON_AND_ORGANIZATION ( #51, #127 ) ;
#294 = AXIS2_PLACEMENT_3D ( 'NONE', #37, #240, #252 ) ;
#295 = PERSON_AND_ORGANIZATION_ROLE ( 'creator' ) ;
#296 = FACE_OUTER_BOUND ( 'NONE', #90, .T. ) ;
#297 = ORIENTED_EDGE ( 'NONE', *, *, #359, .T. ) ;
#298 = EDGE_LOOP ( 'NONE', ( #105 ) ) ;
#299 = FACE_OUTER_BOUND ( 'NONE', #228, .T. ) ;
#300 = CARTESIAN_POINT ( 'NONE',  ( 0.0000000000000000000, 0.0000000000000000000, 0.0000000000000000000 ) ) ;
#301 = PLANE ( 'NONE',  #312 ) ;
#302 = CARTESIAN_POINT ( 'NONE',  ( -0.3969999999999990759, 0.0000000000000000000, 0.2671221769882333730 ) ) ;
#303 = TOROIDAL_SURFACE ( 'NONE', #135, 1.359999999999999654, 1.000000000000000000 ) ;
#304 = DIRECTION ( 'NONE',  ( 1.000000000000000000, 0.0000000000000000000, -3.513618151573392962E-15 ) ) ;
#305 = DIRECTION ( 'NONE',  ( -3.491481338843133355E-15, 0.0000000000000000000, -1.000000000000000000 ) ) ;
#306 = VERTEX_POINT ( 'NONE', #65 ) ;
#307 = EDGE_LOOP ( 'NONE', ( #22 ) ) ;
#308 = ADVANCED_FACE ( 'NONE', ( #94, #296 ), #107, .T. ) ;
#309 = FACE_BOUND ( 'NONE', #319, .T. ) ;
#310 = PLANE ( 'NONE',  #78 ) ;
#311 = FACE_OUTER_BOUND ( 'NONE', #5, .T. ) ;
#312 = AXIS2_PLACEMENT_3D ( 'NONE', #179, #202, #280 ) ;
#313 = FACE_OUTER_BOUND ( 'NONE', #307, .T. ) ;
#314 = EDGE_LOOP ( 'NONE', ( #200 ) ) ;
#315 = EDGE_CURVE ( 'NONE', #139, #139, #50, .T. ) ;
#316 = CALENDAR_DATE ( 2021, 17, 12 ) ;
#317 = DESIGN_CONTEXT ( 'detailed design', #62, 'design' ) ;
#318 = CIRCLE ( 'NONE', #213, 0.3599999999999995426 ) ;
#319 = EDGE_LOOP ( 'NONE', ( #126 ) ) ;
#320 = AXIS2_PLACEMENT_3D ( 'NONE', #300, #2, #195 ) ;
#321 = CARTESIAN_POINT ( 'NONE',  ( 0.0000000000000000000, 0.0000000000000000000, 0.0000000000000000000 ) ) ;
#322 = ORIENTED_EDGE ( 'NONE', *, *, #44, .F. ) ;
#323 = EDGE_CURVE ( 'NONE', #335, #335, #97, .T. ) ;
#324 = DIRECTION ( 'NONE',  ( -3.491481338843133355E-15, 0.0000000000000000000, -1.000000000000000000 ) ) ;
#325 = EDGE_LOOP ( 'NONE', ( #18 ) ) ;
#326 = PERSON_AND_ORGANIZATION ( #51, #127 ) ;
#327 = LOCAL_TIME ( 8, 11, 10.00000000000000000, #25 ) ;
#328 = EDGE_LOOP ( 'NONE', ( #187 ) ) ;
#329 = CC_DESIGN_PERSON_AND_ORGANIZATION_ASSIGNMENT ( #159, #266, ( #178 ) ) ;
#330 = AXIS2_PLACEMENT_3D ( 'NONE', #98, #210, #183 ) ;
#331 = APPROVAL_PERSON_ORGANIZATION ( #211, #31, #130 ) ;
#332 = ADVANCED_FACE ( 'NONE', ( #11, #118 ), #55, .T. ) ;
#333 = ORIENTED_EDGE ( 'NONE', *, *, #167, .F. ) ;
#334 = EDGE_LOOP ( 'NONE', ( #169 ) ) ;
#335 = VERTEX_POINT ( 'NONE', #341 ) ;
#336 = CONICAL_SURFACE ( 'NONE', #108, 0.3970000000000000195, 1.047197551196600740 ) ;
#337 = ORIENTED_EDGE ( 'NONE', *, *, #354, .T. ) ;
#338 = DATE_TIME_ROLE ( 'classification_date' ) ;
#339 = CARTESIAN_POINT ( 'NONE',  ( 1.486958722148516240E-14, 0.0000000000000000000, 4.258819045102514522 ) ) ;
#340 = DIRECTION ( 'NONE',  ( -3.491481338843133355E-15, 0.0000000000000000000, -1.000000000000000000 ) ) ;
#341 = CARTESIAN_POINT ( 'NONE',  ( -1.499999999999863665, 0.0000000000000000000, 37.70000000000000284 ) ) ;
#342 = DIRECTION ( 'NONE',  ( -3.491481338843133355E-15, 0.0000000000000000000, -1.000000000000000000 ) ) ;
#343 = CARTESIAN_POINT ( 'NONE',  ( 1.326762908760390423E-13, 0.0000000000000000000, 38.00000000000000000 ) ) ;
#344 = CIRCLE ( 'NONE', #95, 0.3970000000000000195 ) ;
#345 = LOCAL_TIME ( 8, 11, 10.00000000000000000, #220 ) ;
#346 = CYLINDRICAL_SURFACE ( 'NONE', #330, 0.3970000000000000195 ) ;
#347 = CARTESIAN_POINT ( 'NONE',  ( 1.396592535537253342E-14, 0.0000000000000000000, 4.000000000000000000 ) ) ;
#348 = PRODUCT_DEFINITION ( 'UNKNOWN', '', #178, #317 ) ;
#349 = APPROVAL_STATUS ( 'not_yet_approved' ) ;
#350 = ORIENTED_EDGE ( 'NONE', *, *, #101, .T. ) ;
#351 = ORIENTED_EDGE ( 'NONE', *, *, #194, .T. ) ;
#352 = DIRECTION ( 'NONE',  ( -1.000000000000000000, 0.0000000000000000000, 3.491481338843133355E-15 ) ) ;
#353 = CIRCLE ( 'NONE', #26, 0.3970000000000000195 ) ;
#354 = EDGE_CURVE ( 'NONE', #4, #4, #257, .T. ) ;
#355 = EDGE_LOOP ( 'NONE', ( #140 ) ) ;
#356 = CIRCLE ( 'NONE', #166, 0.5399999999999999245 ) ;
#357 = DATE_AND_TIME ( #190, #345 ) ;
#358 = LOCAL_TIME ( 8, 11, 10.00000000000000000, #201 ) ;
#359 = EDGE_CURVE ( 'NONE', #117, #117, #193, .T. ) ;
#360 = FACE_OUTER_BOUND ( 'NONE', #83, .T. ) ;
#361 = PERSON_AND_ORGANIZATION_ROLE ( 'classification_officer' ) ;
#362 = DIRECTION ( 'NONE',  ( -3.491481338843133355E-15, 0.0000000000000000000, -1.000000000000000000 ) ) ;
#363 = ADVANCED_FACE ( 'NONE', ( #299, #198 ), #41, .F. ) ;
ENDSEC;
END-ISO-10303-21;
