ISO-10303-21;
HEADER;
FILE_DESCRIPTION (( 'STEP AP203' ),
    '1' );
FILE_NAME ('378078.step',
    '2021-12-17T07:11:10',
    ( '' ),
    ( '' ),
    'SwSTEP 2.0',
    'SolidWorks 2019',
    '' );
FILE_SCHEMA (( 'CONFIG_CONTROL_DESIGN' ));
ENDSEC;

DATA;
#1 = DIRECTION ( 'NONE',  ( -3.491481338843133355E-15, 0.0000000000000000000, -1.000000000000000000 ) ) ;
#2 = PERSON_AND_ORGANIZATION ( #93, #179 ) ;
#3 = ORIENTED_EDGE ( 'NONE', *, *, #99, .F. ) ;
#4 = FACE_BOUND ( 'NONE', #69, .T. ) ;
#5 = CARTESIAN_POINT ( 'NONE',  ( -0.4699999999999993072, 0.0000000000000000000, 0.1537046820335667696 ) ) ;
#6 = EDGE_CURVE ( 'NONE', #307, #307, #329, .T. ) ;
#7 = DIRECTION ( 'NONE',  ( -3.491481338843133355E-15, 0.0000000000000000000, -1.000000000000000000 ) ) ;
#8 = AXIS2_PLACEMENT_3D ( 'NONE', #290, #98, #189 ) ;
#9 = PERSON_AND_ORGANIZATION ( #93, #179 ) ;
#10 = ORIENTED_EDGE ( 'NONE', *, *, #116, .F. ) ;
#11 = EDGE_CURVE ( 'NONE', #347, #347, #338, .T. ) ;
#12 = EDGE_LOOP ( 'NONE', ( #348 ) ) ;
#13 = PERSON_AND_ORGANIZATION ( #93, #179 ) ;
#14 = EDGE_LOOP ( 'NONE', ( #359 ) ) ;
#15 = CYLINDRICAL_SURFACE ( 'NONE', #8, 0.3199999999999996736 ) ;
#16 = CIRCLE ( 'NONE', #40, 0.4699999999999998068 ) ;
#17 = AXIS2_PLACEMENT_3D ( 'NONE', #270, #27, #278 ) ;
#18 = APPROVAL ( #299, 'UNSPECIFIED' ) ;
#19 = CONICAL_SURFACE ( 'NONE', #343, 0.4700000000000000289, 1.047197551196600074 ) ;
#20 = DIRECTION ( 'NONE',  ( -3.491481338843133355E-15, 0.0000000000000000000, -1.000000000000000000 ) ) ;
#21 = ADVANCED_FACE ( 'NONE', ( #227, #101 ), #114, .T. ) ;
#22 = FACE_BOUND ( 'NONE', #12, .T. ) ;
#23 = FACE_OUTER_BOUND ( 'NONE', #185, .T. ) ;
#24 = AXIS2_PLACEMENT_3D ( 'NONE', #196, #52, #302 ) ;
#25 = DIRECTION ( 'NONE',  ( -1.000000000000000000, 0.0000000000000000000, 3.491481338843133355E-15 ) ) ;
#26 = FACE_OUTER_BOUND ( 'NONE', #286, .T. ) ;
#27 = DIRECTION ( 'NONE',  ( 3.491481338843133355E-15, 0.0000000000000000000, 1.000000000000000000 ) ) ;
#28 = PLANE ( 'NONE',  #251 ) ;
#29 = DIRECTION ( 'NONE',  ( -1.000000000000000000, 0.0000000000000000000, 3.491481338843133355E-15 ) ) ;
#30 = DIRECTION ( 'NONE',  ( -3.491481338843133355E-15, 0.0000000000000000000, -1.000000000000000000 ) ) ;
#31 = VERTEX_POINT ( 'NONE', #252 ) ;
#32 = DIRECTION ( 'NONE',  ( 0.0000000000000000000, 0.0000000000000000000, 1.000000000000000000 ) ) ;
#33 = CC_DESIGN_SECURITY_CLASSIFICATION ( #207, ( #242 ) ) ;
#34 = CARTESIAN_POINT ( 'NONE',  ( 0.0000000000000000000, 0.0000000000000000000, 0.0000000000000000000 ) ) ;
#35 = APPLICATION_PROTOCOL_DEFINITION ( 'international standard', 'config_control_design', 1994, #287 ) ;
#36 = ADVANCED_FACE ( 'NONE', ( #324, #72 ), #15, .T. ) ;
#37 = PRODUCT_DEFINITION_SHAPE ( 'NONE', 'NONE',  #49 ) ;
#38 = EDGE_LOOP ( 'NONE', ( #159 ) ) ;
#39 = AXIS2_PLACEMENT_3D ( 'NONE', #140, #190, #46 ) ;
#40 = AXIS2_PLACEMENT_3D ( 'NONE', #97, #336, #218 ) ;
#41 = AXIS2_PLACEMENT_3D ( 'NONE', #34, #150, #263 ) ;
#42 = LOCAL_TIME ( 8, 11, 10.00000000000000000, #130 ) ;
#43 = APPROVAL_DATE_TIME ( #321, #58 ) ;
#44 = EDGE_CURVE ( 'NONE', #246, #246, #16, .T. ) ;
#45 = ORIENTED_EDGE ( 'NONE', *, *, #293, .F. ) ;
#46 = DIRECTION ( 'NONE',  ( -1.000000000000000000, 0.0000000000000000000, 3.557538378468065368E-15 ) ) ;
#47 = DATE_AND_TIME ( #195, #90 ) ;
#48 = AXIS2_PLACEMENT_3D ( 'NONE', #241, #222, #164 ) ;
#49 = PRODUCT_DEFINITION ( 'UNKNOWN', '', #242, #203 ) ;
#50 = CARTESIAN_POINT ( 'NONE',  ( 2.234548056859606905E-16, 0.0000000000000000000, 0.06400000000000004297 ) ) ;
#51 = APPROVAL_DATE_TIME ( #47, #18 ) ;
#52 = DIRECTION ( 'NONE',  ( -3.491481338843133355E-15, 0.0000000000000000000, -1.000000000000000000 ) ) ;
#53 = ADVANCED_BREP_SHAPE_REPRESENTATION ( '378078', ( #311, #71, #56 ), #161 ) ;
#54 = CARTESIAN_POINT ( 'NONE',  ( 7.765381442243536303E-16, 0.0000000000000000000, 0.2224093640671301886 ) ) ;
#55 = EDGE_LOOP ( 'NONE', ( #3 ) ) ;
#56 = AXIS2_PLACEMENT_3D ( 'NONE', #308, #32, #305 ) ;
#57 = FACE_OUTER_BOUND ( 'NONE', #215, .T. ) ;
#58 = APPROVAL ( #149, 'UNSPECIFIED' ) ;
#59 = VERTEX_POINT ( 'NONE', #173 ) ;
#60 = PERSON_AND_ORGANIZATION_ROLE ( 'design_owner' ) ;
#61 = FACE_OUTER_BOUND ( 'NONE', #124, .T. ) ;
#62 = CYLINDRICAL_SURFACE ( 'NONE', #41, 0.3509999999999999787 ) ;
#63 = TOROIDAL_SURFACE ( 'NONE', #48, 1.320000000000000062, 1.000000000000000000 ) ;
#64 = DIRECTION ( 'NONE',  ( -3.491481338843133355E-15, 0.0000000000000000000, -1.000000000000000000 ) ) ;
#65 = PERSON_AND_ORGANIZATION_ROLE ( 'design_supplier' ) ;
#66 = PERSON_AND_ORGANIZATION ( #93, #179 ) ;
#67 = ADVANCED_FACE ( 'NONE', ( #23, #266 ), #269, .T. ) ;
#68 = PERSON_AND_ORGANIZATION ( #93, #179 ) ;
#69 = EDGE_LOOP ( 'NONE', ( #128 ) ) ;
#70 = CC_DESIGN_APPROVAL ( #192, ( #207 ) ) ;
#71 = MANIFOLD_SOLID_BREP ( 'Corps-Déplacer/Copier1[2]', #264 ) ;
#72 = FACE_OUTER_BOUND ( 'NONE', #182, .T. ) ;
#73 = CARTESIAN_POINT ( 'NONE',  ( 0.0000000000000000000, 0.0000000000000000000, 0.0000000000000000000 ) ) ;
#74 = EDGE_CURVE ( 'NONE', #112, #112, #234, .T. ) ;
#75 = FACE_OUTER_BOUND ( 'NONE', #14, .T. ) ;
#76 = EDGE_LOOP ( 'NONE', ( #95 ) ) ;
#77 = DIRECTION ( 'NONE',  ( -3.491481338843133355E-15, 0.0000000000000000000, -1.000000000000000000 ) ) ;
#78 = PERSON_AND_ORGANIZATION_ROLE ( 'creator' ) ;
#79 = DIRECTION ( 'NONE',  ( -1.000000000000000000, 0.0000000000000000000, 3.552229340052222847E-15 ) ) ;
#80 = ADVANCED_FACE ( 'NONE', ( #168, #26 ), #288, .T. ) ;
#81 = FACE_OUTER_BOUND ( 'NONE', #219, .T. ) ;
#82 = DIRECTION ( 'NONE',  ( -1.000000000000000000, 0.0000000000000000000, 3.552229340052222847E-15 ) ) ;
#83 = CONICAL_SURFACE ( 'NONE', #136, 0.3509999999999999787, 1.047197551196599852 ) ;
#84 = DIRECTION ( 'NONE',  ( -3.491481338843133355E-15, 0.0000000000000000000, -1.000000000000000000 ) ) ;
#85 = VERTEX_POINT ( 'NONE', #303 ) ;
#86 = EDGE_LOOP ( 'NONE', ( #325 ) ) ;
#87 = CC_DESIGN_DATE_AND_TIME_ASSIGNMENT ( #176, #243, ( #207 ) ) ;
#88 = COORDINATED_UNIVERSAL_TIME_OFFSET ( 1, 0, .AHEAD. ) ;
#89 = AXIS2_PLACEMENT_3D ( 'NONE', #170, #151, #118 ) ;
#90 = LOCAL_TIME ( 8, 11, 10.00000000000000000, #238 ) ;
#91 = EDGE_LOOP ( 'NONE', ( #10 ) ) ;
#92 = VERTEX_POINT ( 'NONE', #224 ) ;
#93 = PERSON ( 'UNSPECIFIED', 'UNSPECIFIED', 'UNSPECIFIED', ('UNSPECIFIED'), ('UNSPECIFIED'), ('UNSPECIFIED') ) ;
#94 = ADVANCED_FACE ( 'NONE', ( #193, #237 ), #272, .T. ) ;
#95 = ORIENTED_EDGE ( 'NONE', *, *, #186, .T. ) ;
#96 = CIRCLE ( 'NONE', #295, 0.3509999999999999787 ) ;
#97 = CARTESIAN_POINT ( 'NONE',  ( 5.366570290130100419E-16, 0.0000000000000000000, 0.1537046820335651320 ) ) ;
#98 = DIRECTION ( 'NONE',  ( -3.491481338843133355E-15, 0.0000000000000000000, -1.000000000000000000 ) ) ;
#99 = EDGE_CURVE ( 'NONE', #92, #92, #236, .T. ) ;
#100 = ORIENTED_EDGE ( 'NONE', *, *, #6, .F. ) ;
#101 = FACE_BOUND ( 'NONE', #38, .T. ) ;
#102 = AXIS2_PLACEMENT_3D ( 'NONE', #109, #358, #167 ) ;
#103 = ADVANCED_FACE ( 'NONE', ( #104 ), #107, .T. ) ;
#104 = FACE_OUTER_BOUND ( 'NONE', #322, .T. ) ;
#105 = APPROVAL_ROLE ( '' ) ;
#106 = FACE_OUTER_BOUND ( 'NONE', #346, .T. ) ;
#107 = PLANE ( 'NONE',  #102 ) ;
#108 = APPROVAL_PERSON_ORGANIZATION ( #13, #58, #256 ) ;
#109 = CARTESIAN_POINT ( 'NONE',  ( 9.999929499103139757E-16, -1.327032712571684229E-16, 0.2864093640671301344 ) ) ;
#110 = FACE_OUTER_BOUND ( 'NONE', #198, .T. ) ;
#111 = CARTESIAN_POINT ( 'NONE',  ( -0.3509999999999989795, 0.0000000000000000000, 0.2864093640671314112 ) ) ;
#112 = VERTEX_POINT ( 'NONE', #119 ) ;
#113 = DATE_AND_TIME ( #247, #289 ) ;
#114 = CONICAL_SURFACE ( 'NONE', #160, 1.199999999999995293, 0.7853981633974453924 ) ;
#115 = PERSON_AND_ORGANIZATION_ROLE ( 'classification_officer' ) ;
#116 = EDGE_CURVE ( 'NONE', #85, #85, #354, .T. ) ;
#117 = CARTESIAN_POINT ( 'NONE',  ( -0.3509999999999998122, 0.0000000000000000000, 0.06400000000000126421 ) ) ;
#118 = DIRECTION ( 'NONE',  ( -1.000000000000000000, 0.0000000000000000000, 3.517890027745519597E-15 ) ) ;
#119 = CARTESIAN_POINT ( 'NONE',  ( -0.3199999999999878497, 0.0000000000000000000, 3.400000000000001243 ) ) ;
#120 = SHAPE_DEFINITION_REPRESENTATION ( #37, #53 ) ;
#121 = MECHANICAL_CONTEXT ( 'NONE', #292, 'mechanical' ) ;
#122 = DIRECTION ( 'NONE',  ( -1.000000000000000000, 0.0000000000000000000, 3.491481338843133355E-15 ) ) ;
#123 = ORIENTED_EDGE ( 'NONE', *, *, #214, .F. ) ;
#124 = EDGE_LOOP ( 'NONE', ( #138 ) ) ;
#125 = ORIENTED_EDGE ( 'NONE', *, *, #144, .T. ) ;
#126 = CC_DESIGN_APPROVAL ( #58, ( #49 ) ) ;
#127 = ORIENTED_EDGE ( 'NONE', *, *, #116, .T. ) ;
#128 = ORIENTED_EDGE ( 'NONE', *, *, #304, .F. ) ;
#129 = ADVANCED_FACE ( 'NONE', ( #81, #223 ), #63, .F. ) ;
#130 = COORDINATED_UNIVERSAL_TIME_OFFSET ( 1, 0, .AHEAD. ) ;
#131 = DIRECTION ( 'NONE',  ( -3.491481338843133355E-15, 0.0000000000000000000, -1.000000000000000000 ) ) ;
#132 = CARTESIAN_POINT ( 'NONE',  ( 1.326762908760390423E-13, 0.0000000000000000000, 38.00000000000000000 ) ) ;
#133 = CARTESIAN_POINT ( 'NONE',  ( 1.187103655206665183E-14, 0.0000000000000000000, 3.399999999999999911 ) ) ;
#134 = FACE_OUTER_BOUND ( 'NONE', #76, .T. ) ;
#135 = DIRECTION ( 'NONE',  ( 3.491481338843133355E-15, 0.0000000000000000000, 1.000000000000000000 ) ) ;
#136 = AXIS2_PLACEMENT_3D ( 'NONE', #54, #131, #220 ) ;
#137 = AXIS2_PLACEMENT_3D ( 'NONE', #50, #7, #342 ) ;
#138 = ORIENTED_EDGE ( 'NONE', *, *, #293, .T. ) ;
#139 = APPROVAL_STATUS ( 'not_yet_approved' ) ;
#140 = CARTESIAN_POINT ( 'NONE',  ( 1.605128211996683312E-15, 0.0000000000000000000, 0.4597269915607013480 ) ) ;
#141 = VERTEX_POINT ( 'NONE', #228 ) ;
#142 = DIRECTION ( 'NONE',  ( 1.000000000000000000, 0.0000000000000000000, -3.491481338843133355E-15 ) ) ;
#143 = DIRECTION ( 'NONE',  ( -3.491481338843133355E-15, 0.0000000000000000000, -1.000000000000000000 ) ) ;
#144 = EDGE_CURVE ( 'NONE', #59, #59, #209, .T. ) ;
#145 = CARTESIAN_POINT ( 'NONE',  ( 1.605128211996683312E-15, 0.0000000000000000000, 0.4597269915607013480 ) ) ;
#146 = VERTEX_POINT ( 'NONE', #117 ) ;
#147 = AXIS2_PLACEMENT_3D ( 'NONE', #201, #282, #25 ) ;
#148 = EDGE_LOOP ( 'NONE', ( #125 ) ) ;
#149 = APPROVAL_STATUS ( 'not_yet_approved' ) ;
#150 = DIRECTION ( 'NONE',  ( -3.491481338843133355E-15, 0.0000000000000000000, -1.000000000000000000 ) ) ;
#151 = DIRECTION ( 'NONE',  ( -3.491481338843133355E-15, 0.0000000000000000000, -1.000000000000000000 ) ) ;
#152 = ADVANCED_FACE ( 'NONE', ( #106, #22 ), #83, .T. ) ;
#153 = ORIENTED_EDGE ( 'NONE', *, *, #74, .F. ) ;
#154 = ADVANCED_FACE ( 'NONE', ( #4, #332 ), #19, .T. ) ;
#155 = ORIENTED_EDGE ( 'NONE', *, *, #172, .F. ) ;
#156 = AXIS2_PLACEMENT_3D ( 'NONE', #133, #265, #166 ) ;
#157 = EDGE_LOOP ( 'NONE', ( #353 ) ) ;
#158 = AXIS2_PLACEMENT_3D ( 'NONE', #334, #357, #79 ) ;
#159 = ORIENTED_EDGE ( 'NONE', *, *, #6, .T. ) ;
#160 = AXIS2_PLACEMENT_3D ( 'NONE', #285, #212, #188 ) ;
#161 =( GEOMETRIC_REPRESENTATION_CONTEXT ( 3 ) GLOBAL_UNCERTAINTY_ASSIGNED_CONTEXT ( ( #328 ) ) GLOBAL_UNIT_ASSIGNED_CONTEXT ( ( #197, #202, #253 ) ) REPRESENTATION_CONTEXT ( 'NONE', 'WORKASPACE' ) );
#162 = CALENDAR_DATE ( 2021, 17, 12 ) ;
#163 = AXIS2_PLACEMENT_3D ( 'NONE', #145, #232, #226 ) ;
#164 = DIRECTION ( 'NONE',  ( -1.000000000000000000, 0.0000000000000000000, 3.491481338843133355E-15 ) ) ;
#165 = ADVANCED_FACE ( 'NONE', ( #75, #110 ), #191, .T. ) ;
#166 = DIRECTION ( 'NONE',  ( -1.000000000000000000, 0.0000000000000000000, 4.065758146820645572E-15 ) ) ;
#167 = DIRECTION ( 'NONE',  ( 1.000000000000000000, 0.0000000000000000000, -3.491481338843133355E-15 ) ) ;
#168 = FACE_BOUND ( 'NONE', #280, .T. ) ;
#169 = DIRECTION ( 'NONE',  ( -1.000000000000000000, 0.0000000000000000000, 3.475006963094565837E-15 ) ) ;
#170 = CARTESIAN_POINT ( 'NONE',  ( 4.633359208973044269E-16, 0.0000000000000000000, 0.1327046820335651689 ) ) ;
#171 = FACE_OUTER_BOUND ( 'NONE', #187, .T. ) ;
#172 = EDGE_CURVE ( 'NONE', #200, #200, #309, .T. ) ;
#173 = CARTESIAN_POINT ( 'NONE',  ( -0.3509999999999989795, 0.0000000000000000000, 0.2864093640671314112 ) ) ;
#174 = COORDINATED_UNIVERSAL_TIME_OFFSET ( 1, 0, .AHEAD. ) ;
#175 = DIRECTION ( 'NONE',  ( -1.000000000000000000, 0.0000000000000000000, 5.782411586589379332E-15 ) ) ;
#176 = DATE_AND_TIME ( #162, #42 ) ;
#177 = AXIS2_PLACEMENT_3D ( 'NONE', #132, #199, #175 ) ;
#178 = FACE_OUTER_BOUND ( 'NONE', #294, .T. ) ;
#179 = ORGANIZATION ( 'UNSPECIFIED', 'UNSPECIFIED', '' ) ;
#180 = ADVANCED_FACE ( 'NONE', ( #57, #171 ), #230, .F. ) ;
#181 = CARTESIAN_POINT ( 'NONE',  ( -0.3540741737109169840, 0.0000000000000000000, 3.658819045102514433 ) ) ;
#182 = EDGE_LOOP ( 'NONE', ( #312 ) ) ;
#183 = PLANE ( 'NONE',  #147 ) ;
#184 = CC_DESIGN_DATE_AND_TIME_ASSIGNMENT ( #350, #279, ( #49 ) ) ;
#185 = EDGE_LOOP ( 'NONE', ( #235 ) ) ;
#186 = EDGE_CURVE ( 'NONE', #300, #300, #96, .T. ) ;
#187 = EDGE_LOOP ( 'NONE', ( #127 ) ) ;
#188 = DIRECTION ( 'NONE',  ( -1.000000000000000000, 0.0000000000000000000, 5.782411586589379332E-15 ) ) ;
#189 = DIRECTION ( 'NONE',  ( -1.000000000000000000, 0.0000000000000000000, 3.491481338843133355E-15 ) ) ;
#190 = DIRECTION ( 'NONE',  ( -3.491481338843133355E-15, 0.0000000000000000000, -1.000000000000000000 ) ) ;
#191 = CYLINDRICAL_SURFACE ( 'NONE', #316, 0.3509999999999999787 ) ;
#192 = APPROVAL ( #139, 'UNSPECIFIED' ) ;
#193 = FACE_OUTER_BOUND ( 'NONE', #55, .T. ) ;
#194 = DIRECTION ( 'NONE',  ( -3.491481338843133355E-15, 0.0000000000000000000, -1.000000000000000000 ) ) ;
#195 = CALENDAR_DATE ( 2021, 17, 12 ) ;
#196 = CARTESIAN_POINT ( 'NONE',  ( 1.277469841817927765E-14, 0.0000000000000000000, 3.658819045102513101 ) ) ;
#197 =( LENGTH_UNIT ( ) NAMED_UNIT ( * ) SI_UNIT ( .MILLI., .METRE. ) );
#198 = EDGE_LOOP ( 'NONE', ( #208 ) ) ;
#199 = DIRECTION ( 'NONE',  ( -3.491481338843133355E-15, 0.0000000000000000000, -1.000000000000000000 ) ) ;
#200 = VERTEX_POINT ( 'NONE', #181 ) ;
#201 = CARTESIAN_POINT ( 'NONE',  ( 1.326762908760390423E-13, 0.0000000000000000000, 38.00000000000000000 ) ) ;
#202 =( NAMED_UNIT ( * ) PLANE_ANGLE_UNIT ( ) SI_UNIT ( $, .RADIAN. ) );
#203 = DESIGN_CONTEXT ( 'detailed design', #287, 'design' ) ;
#204 = DIRECTION ( 'NONE',  ( 3.491481338843133355E-15, 0.0000000000000000000, 1.000000000000000000 ) ) ;
#205 = ADVANCED_FACE ( 'NONE', ( #344 ), #183, .F. ) ;
#206 = CIRCLE ( 'NONE', #158, 0.3509999999999999787 ) ;
#207 = SECURITY_CLASSIFICATION ( '', '', #245 ) ;
#208 = ORIENTED_EDGE ( 'NONE', *, *, #304, .T. ) ;
#209 = CIRCLE ( 'NONE', #261, 0.3509999999999999787 ) ;
#210 = CALENDAR_DATE ( 2021, 17, 12 ) ;
#211 = ORIENTED_EDGE ( 'NONE', *, *, #144, .F. ) ;
#212 = DIRECTION ( 'NONE',  ( -3.491481338843133355E-15, 0.0000000000000000000, -1.000000000000000000 ) ) ;
#213 = AXIS2_PLACEMENT_3D ( 'NONE', #73, #1, #29 ) ;
#214 = EDGE_CURVE ( 'NONE', #31, #31, #330, .T. ) ;
#215 = EDGE_LOOP ( 'NONE', ( #45 ) ) ;
#216 = DIRECTION ( 'NONE',  ( -1.000000000000000000, 0.0000000000000000000, 3.491481338843133355E-15 ) ) ;
#217 = ADVANCED_FACE ( 'NONE', ( #134 ), #221, .F. ) ;
#218 = DIRECTION ( 'NONE',  ( -1.000000000000000000, 0.0000000000000000000, 3.517890027745521175E-15 ) ) ;
#219 = EDGE_LOOP ( 'NONE', ( #153 ) ) ;
#220 = DIRECTION ( 'NONE',  ( -1.000000000000000000, 0.0000000000000000000, 3.475006963094565837E-15 ) ) ;
#221 = PLANE ( 'NONE',  #17 ) ;
#222 = DIRECTION ( 'NONE',  ( -3.491481338843133355E-15, 0.0000000000000000000, -1.000000000000000000 ) ) ;
#223 = FACE_OUTER_BOUND ( 'NONE', #337, .T. ) ;
#224 = CARTESIAN_POINT ( 'NONE',  ( -1.499999999999967804, 0.0000000000000000000, 7.935472450518775922 ) ) ;
#225 = PRODUCT_RELATED_PRODUCT_CATEGORY ( 'detail', '', ( #255 ) ) ;
#226 = DIRECTION ( 'NONE',  ( -1.000000000000000000, 0.0000000000000000000, 3.491481338843133355E-15 ) ) ;
#227 = FACE_OUTER_BOUND ( 'NONE', #157, .T. ) ;
#228 = CARTESIAN_POINT ( 'NONE',  ( -0.4699999999999995293, 0.0000000000000000000, 0.1327046820335668065 ) ) ;
#229 = ORIENTED_EDGE ( 'NONE', *, *, #44, .F. ) ;
#230 = TOROIDAL_SURFACE ( 'NONE', #163, 0.8199999999999996181, 0.5000000000000000000 ) ;
#231 = ORIENTED_EDGE ( 'NONE', *, *, #172, .T. ) ;
#232 = DIRECTION ( 'NONE',  ( -3.491481338843133355E-15, 0.0000000000000000000, -1.000000000000000000 ) ) ;
#233 = COORDINATED_UNIVERSAL_TIME_OFFSET ( 1, 0, .AHEAD. ) ;
#234 = CIRCLE ( 'NONE', #156, 0.3199999999999996736 ) ;
#235 = ORIENTED_EDGE ( 'NONE', *, *, #320, .F. ) ;
#236 = CIRCLE ( 'NONE', #351, 1.499999999999995559 ) ;
#237 = FACE_OUTER_BOUND ( 'NONE', #317, .T. ) ;
#238 = COORDINATED_UNIVERSAL_TIME_OFFSET ( 1, 0, .AHEAD. ) ;
#239 = DIRECTION ( 'NONE',  ( 1.000000000000000000, 0.0000000000000000000, -3.469446951953624444E-15 ) ) ;
#240 = CIRCLE ( 'NONE', #137, 0.3510000000000000342 ) ;
#241 = CARTESIAN_POINT ( 'NONE',  ( 1.187103655206665183E-14, 0.0000000000000000000, 3.399999999999999911 ) ) ;
#242 = PRODUCT_DEFINITION_FORMATION_WITH_SPECIFIED_SOURCE ( 'ANY', '', #255, .NOT_KNOWN. ) ;
#243 = DATE_TIME_ROLE ( 'classification_date' ) ;
#244 = CARTESIAN_POINT ( 'NONE',  ( 2.770655397589007710E-14, 0.0000000000000000000, 7.935472450518770593 ) ) ;
#245 = SECURITY_CLASSIFICATION_LEVEL ( 'unclassified' ) ;
#246 = VERTEX_POINT ( 'NONE', #5 ) ;
#247 = CALENDAR_DATE ( 2021, 17, 12 ) ;
#248 = CARTESIAN_POINT ( 'NONE',  ( 4.731839565957903391E-32, 0.0000000000000000000, 1.355252715606880543E-17 ) ) ;
#249 = CLOSED_SHELL ( 'NONE', ( #361, #180, #36, #129, #80, #94, #21, #205 ) ) ;
#250 = DIRECTION ( 'NONE',  ( -1.000000000000000000, 0.0000000000000000000, 4.625929269271500311E-15 ) ) ;
#251 = AXIS2_PLACEMENT_3D ( 'NONE', #341, #204, #142 ) ;
#252 = CARTESIAN_POINT ( 'NONE',  ( -0.3509999999999992015, 0.0000000000000000000, 0.2224093640671314098 ) ) ;
#253 =( NAMED_UNIT ( * ) SI_UNIT ( $, .STERADIAN. ) SOLID_ANGLE_UNIT ( ) );
#254 = CARTESIAN_POINT ( 'NONE',  ( -1.499999999999863665, 0.0000000000000000000, 37.70000000000000284 ) ) ;
#255 = PRODUCT ( '378078', '378078', '', ( #121 ) ) ;
#256 = APPROVAL_ROLE ( '' ) ;
#257 = AXIS2_PLACEMENT_3D ( 'NONE', #356, #298, #239 ) ;
#258 = PERSON_AND_ORGANIZATION_ROLE ( 'creator' ) ;
#259 = ORIENTED_EDGE ( 'NONE', *, *, #99, .T. ) ;
#260 = ORIENTED_EDGE ( 'NONE', *, *, #44, .T. ) ;
#261 = AXIS2_PLACEMENT_3D ( 'NONE', #335, #194, #82 ) ;
#262 = LOCAL_TIME ( 8, 11, 10.00000000000000000, #174 ) ;
#263 = DIRECTION ( 'NONE',  ( -1.000000000000000000, 0.0000000000000000000, 3.491481338843133355E-15 ) ) ;
#264 = CLOSED_SHELL ( 'NONE', ( #217, #165, #154, #67, #152, #268, #103 ) ) ;
#265 = DIRECTION ( 'NONE',  ( -3.491481338843133355E-15, 0.0000000000000000000, -1.000000000000000000 ) ) ;
#266 = FACE_OUTER_BOUND ( 'NONE', #313, .T. ) ;
#267 = DIRECTION ( 'NONE',  ( 1.000000000000000000, 0.0000000000000000000, -3.517890027745519597E-15 ) ) ;
#268 = ADVANCED_FACE ( 'NONE', ( #178, #306 ), #62, .T. ) ;
#269 = CYLINDRICAL_SURFACE ( 'NONE', #323, 0.4699999999999999178 ) ;
#270 = CARTESIAN_POINT ( 'NONE',  ( 2.365919782978951696E-32, 0.0000000000000000000, 6.776263578034402713E-18 ) ) ;
#271 = APPROVAL_ROLE ( '' ) ;
#272 = CYLINDRICAL_SURFACE ( 'NONE', #213, 1.499999999999995337 ) ;
#273 = CALENDAR_DATE ( 2021, 17, 12 ) ;
#274 = CARTESIAN_POINT ( 'NONE',  ( -0.3509999999999999787, 0.0000000000000000000, 1.239062477090008487E-15 ) ) ;
#275 = CARTESIAN_POINT ( 'NONE',  ( 7.765381442243536303E-16, 0.0000000000000000000, 0.2224093640671301886 ) ) ;
#276 = APPROVAL_DATE_TIME ( #113, #192 ) ;
#277 = VERTEX_POINT ( 'NONE', #111 ) ;
#278 = DIRECTION ( 'NONE',  ( 1.000000000000000000, 0.0000000000000000000, -3.491481338843133355E-15 ) ) ;
#279 = DATE_TIME_ROLE ( 'creation_date' ) ;
#280 = EDGE_LOOP ( 'NONE', ( #155 ) ) ;
#281 = CARTESIAN_POINT ( 'NONE',  ( -1.199999999999862732, 0.0000000000000000000, 38.00000000000000711 ) ) ;
#282 = DIRECTION ( 'NONE',  ( -3.491481338843133355E-15, 0.0000000000000000000, -1.000000000000000000 ) ) ;
#283 = APPLICATION_PROTOCOL_DEFINITION ( 'international standard', 'config_control_design', 1994, #292 ) ;
#284 = AXIS2_PLACEMENT_3D ( 'NONE', #315, #30, #250 ) ;
#285 = CARTESIAN_POINT ( 'NONE',  ( 1.326762908760390423E-13, 0.0000000000000000000, 38.00000000000000000 ) ) ;
#286 = EDGE_LOOP ( 'NONE', ( #259 ) ) ;
#287 = APPLICATION_CONTEXT ( 'configuration controlled 3d designs of mechanical parts and assemblies' ) ;
#288 = CONICAL_SURFACE ( 'NONE', #257, 1.499999999999995559, 0.2617993877991425800 ) ;
#289 = LOCAL_TIME ( 8, 11, 10.00000000000000000, #88 ) ;
#290 = CARTESIAN_POINT ( 'NONE',  ( 0.0000000000000000000, 0.0000000000000000000, 0.0000000000000000000 ) ) ;
#291 = PERSON_AND_ORGANIZATION ( #93, #179 ) ;
#292 = APPLICATION_CONTEXT ( 'configuration controlled 3d designs of mechanical parts and assemblies' ) ;
#293 = EDGE_CURVE ( 'NONE', #277, #277, #206, .T. ) ;
#294 = EDGE_LOOP ( 'NONE', ( #123 ) ) ;
#295 = AXIS2_PLACEMENT_3D ( 'NONE', #248, #64, #122 ) ;
#296 = CARTESIAN_POINT ( 'NONE',  ( 0.0000000000000000000, 0.0000000000000000000, 0.0000000000000000000 ) ) ;
#297 = DIRECTION ( 'NONE',  ( -1.000000000000000000, 0.0000000000000000000, 3.491481338843133355E-15 ) ) ;
#298 = DIRECTION ( 'NONE',  ( 3.491481338843133355E-15, 0.0000000000000000000, 1.000000000000000000 ) ) ;
#299 = APPROVAL_STATUS ( 'not_yet_approved' ) ;
#300 = VERTEX_POINT ( 'NONE', #274 ) ;
#301 = PERSON_AND_ORGANIZATION ( #93, #179 ) ;
#302 = DIRECTION ( 'NONE',  ( -1.000000000000000000, 0.0000000000000000000, 3.674491684459289462E-15 ) ) ;
#303 = CARTESIAN_POINT ( 'NONE',  ( -0.3199999999999980083, 0.0000000000000000000, 0.4597269915607025137 ) ) ;
#304 = EDGE_CURVE ( 'NONE', #146, #146, #240, .T. ) ;
#305 = DIRECTION ( 'NONE',  ( 1.000000000000000000, 0.0000000000000000000, 0.0000000000000000000 ) ) ;
#306 = FACE_OUTER_BOUND ( 'NONE', #148, .T. ) ;
#307 = VERTEX_POINT ( 'NONE', #281 ) ;
#308 = CARTESIAN_POINT ( 'NONE',  ( 0.0000000000000000000, 0.0000000000000000000, 0.0000000000000000000 ) ) ;
#309 = CIRCLE ( 'NONE', #24, 0.3540741737109297516 ) ;
#310 = LOCAL_TIME ( 8, 11, 10.00000000000000000, #233 ) ;
#311 = MANIFOLD_SOLID_BREP ( 'Corps-Déplacer/Copier1[1]', #249 ) ;
#312 = ORIENTED_EDGE ( 'NONE', *, *, #74, .T. ) ;
#313 = EDGE_LOOP ( 'NONE', ( #260 ) ) ;
#314 = CC_DESIGN_PERSON_AND_ORGANIZATION_ASSIGNMENT ( #360, #78, ( #242 ) ) ;
#315 = CARTESIAN_POINT ( 'NONE',  ( 1.316288464743861212E-13, 0.0000000000000000000, 37.69999999999999574 ) ) ;
#316 = AXIS2_PLACEMENT_3D ( 'NONE', #296, #77, #297 ) ;
#317 = EDGE_LOOP ( 'NONE', ( #319 ) ) ;
#318 = APPROVAL_PERSON_ORGANIZATION ( #291, #18, #105 ) ;
#319 = ORIENTED_EDGE ( 'NONE', *, *, #11, .T. ) ;
#320 = EDGE_CURVE ( 'NONE', #141, #141, #345, .T. ) ;
#321 = DATE_AND_TIME ( #273, #262 ) ;
#322 = EDGE_LOOP ( 'NONE', ( #211 ) ) ;
#323 = AXIS2_PLACEMENT_3D ( 'NONE', #326, #143, #216 ) ;
#324 = FACE_OUTER_BOUND ( 'NONE', #91, .T. ) ;
#325 = ORIENTED_EDGE ( 'NONE', *, *, #320, .T. ) ;
#326 = CARTESIAN_POINT ( 'NONE',  ( 0.0000000000000000000, 0.0000000000000000000, 0.0000000000000000000 ) ) ;
#327 = CARTESIAN_POINT ( 'NONE',  ( 4.633359208973044269E-16, 0.0000000000000000000, 0.1327046820335651689 ) ) ;
#328 = UNCERTAINTY_MEASURE_WITH_UNIT (LENGTH_MEASURE( 1.000000000000000082E-05 ), #197, 'distance_accuracy_value', 'NONE');
#329 = CIRCLE ( 'NONE', #177, 1.199999999999995293 ) ;
#330 = CIRCLE ( 'NONE', #339, 0.3509999999999999787 ) ;
#331 = APPROVAL_PERSON_ORGANIZATION ( #301, #192, #271 ) ;
#332 = FACE_OUTER_BOUND ( 'NONE', #86, .T. ) ;
#333 = CC_DESIGN_PERSON_AND_ORGANIZATION_ASSIGNMENT ( #66, #60, ( #255 ) ) ;
#334 = CARTESIAN_POINT ( 'NONE',  ( 9.999929499103139757E-16, 0.0000000000000000000, 0.2864093640671301899 ) ) ;
#335 = CARTESIAN_POINT ( 'NONE',  ( 9.999929499103139757E-16, 0.0000000000000000000, 0.2864093640671301899 ) ) ;
#336 = DIRECTION ( 'NONE',  ( -3.491481338843133355E-15, 0.0000000000000000000, -1.000000000000000000 ) ) ;
#337 = EDGE_LOOP ( 'NONE', ( #231 ) ) ;
#338 = CIRCLE ( 'NONE', #284, 1.499999999999995337 ) ;
#339 = AXIS2_PLACEMENT_3D ( 'NONE', #275, #84, #169 ) ;
#340 = CC_DESIGN_APPROVAL ( #18, ( #242 ) ) ;
#341 = CARTESIAN_POINT ( 'NONE',  ( 9.999929499103139757E-16, -1.327032712571684229E-16, 0.2864093640671301344 ) ) ;
#342 = DIRECTION ( 'NONE',  ( -1.000000000000000000, 0.0000000000000000000, 3.475006963094565049E-15 ) ) ;
#343 = AXIS2_PLACEMENT_3D ( 'NONE', #327, #135, #267 ) ;
#344 = FACE_OUTER_BOUND ( 'NONE', #349, .T. ) ;
#345 = CIRCLE ( 'NONE', #89, 0.4700000000000000289 ) ;
#346 = EDGE_LOOP ( 'NONE', ( #229 ) ) ;
#347 = VERTEX_POINT ( 'NONE', #254 ) ;
#348 = ORIENTED_EDGE ( 'NONE', *, *, #214, .T. ) ;
#349 = EDGE_LOOP ( 'NONE', ( #100 ) ) ;
#350 = DATE_AND_TIME ( #210, #310 ) ;
#351 = AXIS2_PLACEMENT_3D ( 'NONE', #244, #20, #362 ) ;
#352 = CC_DESIGN_PERSON_AND_ORGANIZATION_ASSIGNMENT ( #9, #115, ( #207 ) ) ;
#353 = ORIENTED_EDGE ( 'NONE', *, *, #11, .F. ) ;
#354 = CIRCLE ( 'NONE', #39, 0.3199999999999996736 ) ;
#355 = CC_DESIGN_PERSON_AND_ORGANIZATION_ASSIGNMENT ( #2, #65, ( #242 ) ) ;
#356 = CARTESIAN_POINT ( 'NONE',  ( 2.770655397589007710E-14, 0.0000000000000000000, 7.935472450518770593 ) ) ;
#357 = DIRECTION ( 'NONE',  ( -3.491481338843133355E-15, 0.0000000000000000000, -1.000000000000000000 ) ) ;
#358 = DIRECTION ( 'NONE',  ( 3.491481338843133355E-15, 0.0000000000000000000, 1.000000000000000000 ) ) ;
#359 = ORIENTED_EDGE ( 'NONE', *, *, #186, .F. ) ;
#360 = PERSON_AND_ORGANIZATION ( #93, #179 ) ;
#361 = ADVANCED_FACE ( 'NONE', ( #61 ), #28, .F. ) ;
#362 = DIRECTION ( 'NONE',  ( -1.000000000000000000, 0.0000000000000000000, 3.469446951953624444E-15 ) ) ;
#363 = CC_DESIGN_PERSON_AND_ORGANIZATION_ASSIGNMENT ( #68, #258, ( #49 ) ) ;
ENDSEC;
END-ISO-10303-21;
