ISO-10303-21;
HEADER;
FILE_DESCRIPTION (( 'STEP AP203' ),
    '1' );
FILE_NAME ('378077.step',
    '2021-12-17T07:11:09',
    ( '' ),
    ( '' ),
    'SwSTEP 2.0',
    'SolidWorks 2019',
    '' );
FILE_SCHEMA (( 'CONFIG_CONTROL_DESIGN' ));
ENDSEC;

DATA;
#1 = MANIFOLD_SOLID_BREP ( 'Corps-Déplacer/Copier1[2]', #232 ) ;
#2 = ORIENTED_EDGE ( 'NONE', *, *, #359, .F. ) ;
#3 = FACE_OUTER_BOUND ( 'NONE', #34, .T. ) ;
#4 = DIRECTION ( 'NONE',  ( -1.000000000000000000, 0.0000000000000000000, 3.491481338843133355E-15 ) ) ;
#5 = ADVANCED_FACE ( 'NONE', ( #278, #230 ), #276, .T. ) ;
#6 = FACE_OUTER_BOUND ( 'NONE', #309, .T. ) ;
#7 = DESIGN_CONTEXT ( 'detailed design', #350, 'design' ) ;
#8 = DIRECTION ( 'NONE',  ( 3.491481338843133355E-15, 0.0000000000000000000, 1.000000000000000000 ) ) ;
#9 = FACE_OUTER_BOUND ( 'NONE', #306, .T. ) ;
#10 = CC_DESIGN_APPROVAL ( #225, ( #239 ) ) ;
#11 = DIRECTION ( 'NONE',  ( -3.491481338843133355E-15, 0.0000000000000000000, -1.000000000000000000 ) ) ;
#12 =( NAMED_UNIT ( * ) SI_UNIT ( $, .STERADIAN. ) SOLID_ANGLE_UNIT ( ) );
#13 = CC_DESIGN_PERSON_AND_ORGANIZATION_ASSIGNMENT ( #75, #168, ( #363 ) ) ;
#14 = CONICAL_SURFACE ( 'NONE', #226, 0.3699999999999999956, 1.047197551196599852 ) ;
#15 = VERTEX_POINT ( 'NONE', #66 ) ;
#16 = AXIS2_PLACEMENT_3D ( 'NONE', #208, #115, #87 ) ;
#17 = DIRECTION ( 'NONE',  ( -3.491481338843133355E-15, 0.0000000000000000000, -1.000000000000000000 ) ) ;
#18 = COORDINATED_UNIVERSAL_TIME_OFFSET ( 1, 0, .AHEAD. ) ;
#19 = DIRECTION ( 'NONE',  ( -1.000000000000000000, 0.0000000000000000000, 3.413813081904318101E-15 ) ) ;
#20 = ADVANCED_FACE ( 'NONE', ( #6, #172 ), #147, .T. ) ;
#21 = PERSON_AND_ORGANIZATION ( #272, #235 ) ;
#22 = DIRECTION ( 'NONE',  ( -1.000000000000000000, 0.0000000000000000000, 3.942553354492748560E-15 ) ) ;
#23 = AXIS2_PLACEMENT_3D ( 'NONE', #121, #268, #47 ) ;
#24 = DIRECTION ( 'NONE',  ( 1.000000000000000000, 0.0000000000000000000, -3.491481338843133355E-15 ) ) ;
#25 = DIRECTION ( 'NONE',  ( -1.000000000000000000, 0.0000000000000000000, 3.491481338843133355E-15 ) ) ;
#26 = EDGE_LOOP ( 'NONE', ( #182 ) ) ;
#27 = AXIS2_PLACEMENT_3D ( 'NONE', #90, #323, #348 ) ;
#28 = AXIS2_PLACEMENT_3D ( 'NONE', #334, #290, #22 ) ;
#29 = ORIENTED_EDGE ( 'NONE', *, *, #165, .T. ) ;
#30 = EDGE_LOOP ( 'NONE', ( #201 ) ) ;
#31 = CARTESIAN_POINT ( 'NONE',  ( 0.0000000000000000000, 0.0000000000000000000, 0.0000000000000000000 ) ) ;
#32 = ORIENTED_EDGE ( 'NONE', *, *, #217, .T. ) ;
#33 = CC_DESIGN_PERSON_AND_ORGANIZATION_ASSIGNMENT ( #79, #199, ( #363 ) ) ;
#34 = EDGE_LOOP ( 'NONE', ( #175 ) ) ;
#35 = CARTESIAN_POINT ( 'NONE',  ( -0.2509999999999990572, 0.0000000000000000000, 0.2864093640671309116 ) ) ;
#36 = CYLINDRICAL_SURFACE ( 'NONE', #192, 0.2199999999999996958 ) ;
#37 = VERTEX_POINT ( 'NONE', #35 ) ;
#38 = FACE_OUTER_BOUND ( 'NONE', #280, .T. ) ;
#39 = CC_DESIGN_APPROVAL ( #89, ( #363 ) ) ;
#40 = APPROVAL_ROLE ( '' ) ;
#41 = FACE_OUTER_BOUND ( 'NONE', #256, .T. ) ;
#42 = APPROVAL_DATE_TIME ( #330, #225 ) ;
#43 = DIRECTION ( 'NONE',  ( -3.491481338843133355E-15, 0.0000000000000000000, -1.000000000000000000 ) ) ;
#44 = ADVANCED_FACE ( 'NONE', ( #341, #142 ), #288, .F. ) ;
#45 = DIRECTION ( 'NONE',  ( -1.000000000000000000, 0.0000000000000000000, 4.625929269271500311E-15 ) ) ;
#46 = APPROVAL_DATE_TIME ( #107, #89 ) ;
#47 = DIRECTION ( 'NONE',  ( -1.000000000000000000, 0.0000000000000000000, 3.455624454137064976E-15 ) ) ;
#48 = AXIS2_PLACEMENT_3D ( 'NONE', #184, #212, #160 ) ;
#49 = FACE_OUTER_BOUND ( 'NONE', #238, .T. ) ;
#50 = ADVANCED_FACE ( 'NONE', ( #312, #77 ), #271, .T. ) ;
#51 = ORIENTED_EDGE ( 'NONE', *, *, #205, .T. ) ;
#52 = PERSON_AND_ORGANIZATION_ROLE ( 'creator' ) ;
#53 = APPLICATION_PROTOCOL_DEFINITION ( 'international standard', 'config_control_design', 1994, #352 ) ;
#54 = AXIS2_PLACEMENT_3D ( 'NONE', #267, #17, #19 ) ;
#55 = EDGE_LOOP ( 'NONE', ( #32 ) ) ;
#56 = ADVANCED_FACE ( 'NONE', ( #94, #319 ), #262, .T. ) ;
#57 = EDGE_LOOP ( 'NONE', ( #342 ) ) ;
#58 =( LENGTH_UNIT ( ) NAMED_UNIT ( * ) SI_UNIT ( .MILLI., .METRE. ) );
#59 = AXIS2_PLACEMENT_3D ( 'NONE', #261, #99, #326 ) ;
#60 = EDGE_LOOP ( 'NONE', ( #283 ) ) ;
#61 = CARTESIAN_POINT ( 'NONE',  ( -0.3699999999999994960, 0.0000000000000000000, 0.1327046820335664179 ) ) ;
#62 = EDGE_CURVE ( 'NONE', #219, #219, #304, .T. ) ;
#63 = CARTESIAN_POINT ( 'NONE',  ( -0.2199999999999899258, 0.0000000000000000000, 2.800000000000000711 ) ) ;
#64 = VERTEX_POINT ( 'NONE', #209 ) ;
#65 = DIRECTION ( 'NONE',  ( -3.491481338843133355E-15, 0.0000000000000000000, -1.000000000000000000 ) ) ;
#66 = CARTESIAN_POINT ( 'NONE',  ( -1.499999999999968692, 0.0000000000000000000, 7.708677531275673900 ) ) ;
#67 = ADVANCED_FACE ( 'NONE', ( #140, #237 ), #14, .T. ) ;
#68 = AXIS2_PLACEMENT_3D ( 'NONE', #351, #250, #25 ) ;
#69 = PERSON_AND_ORGANIZATION ( #272, #235 ) ;
#70 = VERTEX_POINT ( 'NONE', #157 ) ;
#71 = DIRECTION ( 'NONE',  ( -3.491481338843133355E-15, 0.0000000000000000000, -1.000000000000000000 ) ) ;
#72 = PERSON_AND_ORGANIZATION ( #272, #235 ) ;
#73 = DIRECTION ( 'NONE',  ( 3.491481338843133355E-15, 0.0000000000000000000, 1.000000000000000000 ) ) ;
#74 = ADVANCED_FACE ( 'NONE', ( #3 ), #119, .F. ) ;
#75 = PERSON_AND_ORGANIZATION ( #272, #235 ) ;
#76 = ORIENTED_EDGE ( 'NONE', *, *, #62, .F. ) ;
#77 = FACE_OUTER_BOUND ( 'NONE', #55, .T. ) ;
#78 = CONICAL_SURFACE ( 'NONE', #322, 1.499999999999995559, 0.2617993877991425244 ) ;
#79 = PERSON_AND_ORGANIZATION ( #272, #235 ) ;
#80 = EDGE_CURVE ( 'NONE', #324, #324, #104, .T. ) ;
#81 = ORIENTED_EDGE ( 'NONE', *, *, #217, .F. ) ;
#82 = AXIS2_PLACEMENT_3D ( 'NONE', #224, #190, #266 ) ;
#83 = EDGE_LOOP ( 'NONE', ( #51 ) ) ;
#84 = DIRECTION ( 'NONE',  ( -3.491481338843133355E-15, 0.0000000000000000000, -1.000000000000000000 ) ) ;
#85 = PRODUCT_DEFINITION_SHAPE ( 'NONE', 'NONE',  #354 ) ;
#86 = DIRECTION ( 'NONE',  ( 0.0000000000000000000, 0.0000000000000000000, 1.000000000000000000 ) ) ;
#87 = DIRECTION ( 'NONE',  ( -1.000000000000000000, 0.0000000000000000000, 3.509618586232956739E-15 ) ) ;
#88 = PERSON_AND_ORGANIZATION_ROLE ( 'design_owner' ) ;
#89 = APPROVAL ( #301, 'UNSPECIFIED' ) ;
#90 = CARTESIAN_POINT ( 'NONE',  ( 2.691470374760835302E-14, 0.0000000000000000000, 7.708677531275668571 ) ) ;
#91 = LOCAL_TIME ( 8, 11, 9.000000000000000000, #252 ) ;
#92 = FACE_BOUND ( 'NONE', #307, .T. ) ;
#93 = DIRECTION ( 'NONE',  ( -1.000000000000000000, 0.0000000000000000000, 3.516331370223257730E-15 ) ) ;
#94 = FACE_OUTER_BOUND ( 'NONE', #26, .T. ) ;
#95 = CARTESIAN_POINT ( 'NONE',  ( -0.3699999999999994404, 0.0000000000000000000, 0.1537046820335665198 ) ) ;
#96 = AXIS2_PLACEMENT_3D ( 'NONE', #31, #234, #336 ) ;
#97 = AXIS2_PLACEMENT_3D ( 'NONE', #291, #263, #286 ) ;
#98 = COORDINATED_UNIVERSAL_TIME_OFFSET ( 1, 0, .AHEAD. ) ;
#99 = DIRECTION ( 'NONE',  ( -3.491481338843133355E-15, 0.0000000000000000000, -1.000000000000000000 ) ) ;
#100 = PLANE ( 'NONE',  #243 ) ;
#101 = CALENDAR_DATE ( 2021, 17, 12 ) ;
#102 = EDGE_CURVE ( 'NONE', #15, #15, #191, .T. ) ;
#103 = FACE_OUTER_BOUND ( 'NONE', #236, .T. ) ;
#104 = CIRCLE ( 'NONE', #136, 0.2510000000000000564 ) ;
#105 = AXIS2_PLACEMENT_3D ( 'NONE', #358, #310, #4 ) ;
#106 =( GEOMETRIC_REPRESENTATION_CONTEXT ( 3 ) GLOBAL_UNCERTAINTY_ASSIGNED_CONTEXT ( ( #134 ) ) GLOBAL_UNIT_ASSIGNED_CONTEXT ( ( #58, #259, #12 ) ) REPRESENTATION_CONTEXT ( 'NONE', 'WORKASPACE' ) );
#107 = DATE_AND_TIME ( #195, #91 ) ;
#108 = ORIENTED_EDGE ( 'NONE', *, *, #273, .F. ) ;
#109 = ORIENTED_EDGE ( 'NONE', *, *, #151, .T. ) ;
#110 = AXIS2_PLACEMENT_3D ( 'NONE', #222, #71, #93 ) ;
#111 = EDGE_CURVE ( 'NONE', #189, #189, #274, .T. ) ;
#112 = MANIFOLD_SOLID_BREP ( 'Corps-Déplacer/Copier1[1]', #166 ) ;
#113 = CARTESIAN_POINT ( 'NONE',  ( 0.0000000000000000000, 0.0000000000000000000, 0.0000000000000000000 ) ) ;
#114 = EDGE_LOOP ( 'NONE', ( #287 ) ) ;
#115 = DIRECTION ( 'NONE',  ( -3.491481338843133355E-15, 0.0000000000000000000, -1.000000000000000000 ) ) ;
#116 = AXIS2_PLACEMENT_3D ( 'NONE', #130, #211, #246 ) ;
#117 = PRODUCT ( '378077', '378077', '', ( #317 ) ) ;
#118 = DIRECTION ( 'NONE',  ( -1.000000000000000000, 0.0000000000000000000, 3.455624454137064976E-15 ) ) ;
#119 = PLANE ( 'NONE',  #177 ) ;
#120 = AXIS2_PLACEMENT_3D ( 'NONE', #332, #300, #45 ) ;
#121 = CARTESIAN_POINT ( 'NONE',  ( 9.999929499103137785E-16, 0.0000000000000000000, 0.2864093640671300789 ) ) ;
#122 = DIRECTION ( 'NONE',  ( -1.000000000000000000, 0.0000000000000000000, 3.491481338843133355E-15 ) ) ;
#123 = DIRECTION ( 'NONE',  ( -3.491481338843133355E-15, 0.0000000000000000000, -1.000000000000000000 ) ) ;
#124 = DIRECTION ( 'NONE',  ( -1.000000000000000000, 0.0000000000000000000, 5.782411586589379332E-15 ) ) ;
#125 = CALENDAR_DATE ( 2021, 17, 12 ) ;
#126 = CARTESIAN_POINT ( 'NONE',  ( 2.691470374760835302E-14, 0.0000000000000000000, 7.708677531275668571 ) ) ;
#127 = ADVANCED_FACE ( 'NONE', ( #325, #9 ), #36, .T. ) ;
#128 = CIRCLE ( 'NONE', #110, 0.3699999999999999956 ) ;
#129 = APPROVAL_STATUS ( 'not_yet_approved' ) ;
#130 = CARTESIAN_POINT ( 'NONE',  ( 7.765381442243531373E-16, 0.0000000000000000000, 0.2224093640671300498 ) ) ;
#131 = FACE_OUTER_BOUND ( 'NONE', #338, .T. ) ;
#132 = FACE_OUTER_BOUND ( 'NONE', #150, .T. ) ;
#133 = APPROVAL_DATE_TIME ( #333, #198 ) ;
#134 = UNCERTAINTY_MEASURE_WITH_UNIT (LENGTH_MEASURE( 1.000000000000000082E-05 ), #58, 'distance_accuracy_value', 'NONE');
#135 = EDGE_LOOP ( 'NONE', ( #194 ) ) ;
#136 = AXIS2_PLACEMENT_3D ( 'NONE', #181, #260, #240 ) ;
#137 = PERSON_AND_ORGANIZATION ( #272, #235 ) ;
#138 = ORIENTED_EDGE ( 'NONE', *, *, #233, .T. ) ;
#139 = CONICAL_SURFACE ( 'NONE', #289, 1.199999999999995293, 0.7853981633974453924 ) ;
#140 = FACE_BOUND ( 'NONE', #135, .T. ) ;
#141 = EDGE_LOOP ( 'NONE', ( #361 ) ) ;
#142 = FACE_OUTER_BOUND ( 'NONE', #255, .T. ) ;
#143 = SHAPE_DEFINITION_REPRESENTATION ( #85, #159 ) ;
#144 = EDGE_LOOP ( 'NONE', ( #254 ) ) ;
#145 = EDGE_CURVE ( 'NONE', #244, #244, #275, .T. ) ;
#146 = EDGE_LOOP ( 'NONE', ( #2 ) ) ;
#147 = CYLINDRICAL_SURFACE ( 'NONE', #96, 1.499999999999995337 ) ;
#148 = AXIS2_PLACEMENT_3D ( 'NONE', #156, #123, #327 ) ;
#149 = DIRECTION ( 'NONE',  ( 1.000000000000000000, 0.0000000000000000000, -3.516331370223257730E-15 ) ) ;
#150 = EDGE_LOOP ( 'NONE', ( #200 ) ) ;
#151 = EDGE_CURVE ( 'NONE', #329, #329, #247, .T. ) ;
#152 = DIRECTION ( 'NONE',  ( -3.491481338843133355E-15, 0.0000000000000000000, -1.000000000000000000 ) ) ;
#153 = CC_DESIGN_DATE_AND_TIME_ASSIGNMENT ( #163, #196, ( #354 ) ) ;
#154 = DIRECTION ( 'NONE',  ( -3.491481338843133355E-15, 0.0000000000000000000, -1.000000000000000000 ) ) ;
#155 = CC_DESIGN_APPROVAL ( #198, ( #354 ) ) ;
#156 = CARTESIAN_POINT ( 'NONE',  ( 0.0000000000000000000, 0.0000000000000000000, 0.0000000000000000000 ) ) ;
#157 = CARTESIAN_POINT ( 'NONE',  ( -1.199999999999862732, 0.0000000000000000000, 38.00000000000000711 ) ) ;
#158 = DIRECTION ( 'NONE',  ( 3.491481338843133355E-15, 0.0000000000000000000, 1.000000000000000000 ) ) ;
#159 = ADVANCED_BREP_SHAPE_REPRESENTATION ( '378077', ( #112, #1, #316 ), #106 ) ;
#160 = DIRECTION ( 'NONE',  ( -1.000000000000000000, 0.0000000000000000000, 3.449734185181155384E-15 ) ) ;
#161 = LOCAL_TIME ( 8, 11, 9.000000000000000000, #98 ) ;
#162 = AXIS2_PLACEMENT_3D ( 'NONE', #265, #297, #295 ) ;
#163 = DATE_AND_TIME ( #308, #161 ) ;
#164 = PLANE ( 'NONE',  #337 ) ;
#165 = EDGE_CURVE ( 'NONE', #70, #70, #269, .T. ) ;
#166 = CLOSED_SHELL ( 'NONE', ( #180, #44, #127, #176, #299, #20, #185, #74 ) ) ;
#167 = CIRCLE ( 'NONE', #54, 0.2540741737109301623 ) ;
#168 = PERSON_AND_ORGANIZATION_ROLE ( 'design_supplier' ) ;
#169 = ADVANCED_FACE ( 'NONE', ( #296 ), #214, .T. ) ;
#170 = DATE_TIME_ROLE ( 'classification_date' ) ;
#171 = ADVANCED_FACE ( 'NONE', ( #303 ), #100, .F. ) ;
#172 = FACE_OUTER_BOUND ( 'NONE', #144, .T. ) ;
#173 = LOCAL_TIME ( 8, 11, 9.000000000000000000, #18 ) ;
#174 = ORIENTED_EDGE ( 'NONE', *, *, #273, .T. ) ;
#175 = ORIENTED_EDGE ( 'NONE', *, *, #165, .F. ) ;
#176 = ADVANCED_FACE ( 'NONE', ( #131, #103 ), #311, .F. ) ;
#177 = AXIS2_PLACEMENT_3D ( 'NONE', #346, #152, #122 ) ;
#178 = ORIENTED_EDGE ( 'NONE', *, *, #102, .F. ) ;
#179 = VERTEX_POINT ( 'NONE', #284 ) ;
#180 = ADVANCED_FACE ( 'NONE', ( #49 ), #164, .F. ) ;
#181 = CARTESIAN_POINT ( 'NONE',  ( 0.0000000000000000000, 0.0000000000000000000, 0.0000000000000000000 ) ) ;
#182 = ORIENTED_EDGE ( 'NONE', *, *, #145, .F. ) ;
#183 = PRODUCT_RELATED_PRODUCT_CATEGORY ( 'detail', '', ( #117 ) ) ;
#184 = CARTESIAN_POINT ( 'NONE',  ( 1.605128211996682918E-15, 0.0000000000000000000, 0.4597269915607011814 ) ) ;
#185 = ADVANCED_FACE ( 'NONE', ( #38, #353 ), #139, .T. ) ;
#186 = CARTESIAN_POINT ( 'NONE',  ( -0.2509999999999992792, 0.0000000000000000000, 0.2224093640671309380 ) ) ;
#187 = CARTESIAN_POINT ( 'NONE',  ( -0.2510000000000000564, 0.0000000000000000000, 8.763618160496266418E-16 ) ) ;
#188 = DIRECTION ( 'NONE',  ( -1.000000000000000000, 0.0000000000000000000, 3.491481338843133750E-15 ) ) ;
#189 = VERTEX_POINT ( 'NONE', #292 ) ;
#190 = DIRECTION ( 'NONE',  ( 3.491481338843133355E-15, 0.0000000000000000000, 1.000000000000000000 ) ) ;
#191 = CIRCLE ( 'NONE', #27, 1.499999999999995559 ) ;
#192 = AXIS2_PLACEMENT_3D ( 'NONE', #343, #65, #188 ) ;
#193 = APPROVAL_STATUS ( 'not_yet_approved' ) ;
#194 = ORIENTED_EDGE ( 'NONE', *, *, #151, .F. ) ;
#195 = CALENDAR_DATE ( 2021, 17, 12 ) ;
#196 = DATE_TIME_ROLE ( 'creation_date' ) ;
#197 = FACE_OUTER_BOUND ( 'NONE', #141, .T. ) ;
#198 = APPROVAL ( #129, 'UNSPECIFIED' ) ;
#199 = PERSON_AND_ORGANIZATION_ROLE ( 'creator' ) ;
#200 = ORIENTED_EDGE ( 'NONE', *, *, #205, .F. ) ;
#201 = ORIENTED_EDGE ( 'NONE', *, *, #80, .T. ) ;
#202 = CIRCLE ( 'NONE', #23, 0.2510000000000000564 ) ;
#203 = DIRECTION ( 'NONE',  ( -1.000000000000000000, 0.0000000000000000000, 3.491481338843133355E-15 ) ) ;
#204 = ORIENTED_EDGE ( 'NONE', *, *, #145, .T. ) ;
#205 = EDGE_CURVE ( 'NONE', #344, #344, #128, .T. ) ;
#206 = VERTEX_POINT ( 'NONE', #186 ) ;
#207 = APPROVAL_PERSON_ORGANIZATION ( #137, #89, #335 ) ;
#208 = CARTESIAN_POINT ( 'NONE',  ( 2.234548056859605919E-16, 0.0000000000000000000, 0.06400000000000001521 ) ) ;
#209 = CARTESIAN_POINT ( 'NONE',  ( -0.2540741737109194487, 0.0000000000000000000, 3.058819045102514789 ) ) ;
#210 = APPROVAL_PERSON_ORGANIZATION ( #69, #225, #40 ) ;
#211 = DIRECTION ( 'NONE',  ( -3.491481338843133355E-15, 0.0000000000000000000, -1.000000000000000000 ) ) ;
#212 = DIRECTION ( 'NONE',  ( -3.491481338843133355E-15, 0.0000000000000000000, -1.000000000000000000 ) ) ;
#213 = CYLINDRICAL_SURFACE ( 'NONE', #68, 0.3699999999999999956 ) ;
#214 = PLANE ( 'NONE',  #82 ) ;
#215 = CARTESIAN_POINT ( 'NONE',  ( 1.326762908760390423E-13, 0.0000000000000000000, 38.00000000000000000 ) ) ;
#216 = CC_DESIGN_SECURITY_CLASSIFICATION ( #239, ( #363 ) ) ;
#217 = EDGE_CURVE ( 'NONE', #179, #179, #202, .T. ) ;
#218 = APPLICATION_PROTOCOL_DEFINITION ( 'international standard', 'config_control_design', 1994, #350 ) ;
#219 = VERTEX_POINT ( 'NONE', #302 ) ;
#220 = CARTESIAN_POINT ( 'NONE',  ( 0.0000000000000000000, 0.0000000000000000000, 0.0000000000000000000 ) ) ;
#221 = APPROVAL_ROLE ( '' ) ;
#222 = CARTESIAN_POINT ( 'NONE',  ( 4.633359208973042296E-16, 0.0000000000000000000, 0.1327046820335651134 ) ) ;
#223 = ADVANCED_FACE ( 'NONE', ( #132, #41 ), #213, .T. ) ;
#224 = CARTESIAN_POINT ( 'NONE',  ( 9.999929499103135813E-16, -6.185770014776374578E-17, 0.2864093640671300234 ) ) ;
#225 = APPROVAL ( #193, 'UNSPECIFIED' ) ;
#226 = AXIS2_PLACEMENT_3D ( 'NONE', #339, #8, #149 ) ;
#227 = CIRCLE ( 'NONE', #28, 0.2199999999999996958 ) ;
#228 = EDGE_LOOP ( 'NONE', ( #29 ) ) ;
#229 = ORIENTED_EDGE ( 'NONE', *, *, #111, .T. ) ;
#230 = FACE_OUTER_BOUND ( 'NONE', #257, .T. ) ;
#231 = CARTESIAN_POINT ( 'NONE',  ( 1.605128211996682918E-15, 0.0000000000000000000, 0.4597269915607012369 ) ) ;
#232 = CLOSED_SHELL ( 'NONE', ( #171, #5, #67, #223, #56, #50, #169 ) ) ;
#233 = EDGE_CURVE ( 'NONE', #64, #64, #167, .T. ) ;
#234 = DIRECTION ( 'NONE',  ( -3.491481338843133355E-15, 0.0000000000000000000, -1.000000000000000000 ) ) ;
#235 = ORGANIZATION ( 'UNSPECIFIED', 'UNSPECIFIED', '' ) ;
#236 = EDGE_LOOP ( 'NONE', ( #138 ) ) ;
#237 = FACE_OUTER_BOUND ( 'NONE', #83, .T. ) ;
#238 = EDGE_LOOP ( 'NONE', ( #241 ) ) ;
#239 = SECURITY_CLASSIFICATION ( '', '', #249 ) ;
#240 = DIRECTION ( 'NONE',  ( -1.000000000000000000, 0.0000000000000000000, 3.491481338843133355E-15 ) ) ;
#241 = ORIENTED_EDGE ( 'NONE', *, *, #359, .T. ) ;
#242 = AXIS2_PLACEMENT_3D ( 'NONE', #345, #11, #118 ) ;
#243 = AXIS2_PLACEMENT_3D ( 'NONE', #220, #298, #24 ) ;
#244 = VERTEX_POINT ( 'NONE', #95 ) ;
#245 = PERSON_AND_ORGANIZATION_ROLE ( 'classification_officer' ) ;
#246 = DIRECTION ( 'NONE',  ( -1.000000000000000000, 0.0000000000000000000, 3.455624454137064976E-15 ) ) ;
#247 = CIRCLE ( 'NONE', #16, 0.2510000000000000564 ) ;
#248 = CARTESIAN_POINT ( 'NONE',  ( 9.999929499103135813E-16, -6.185770014776374578E-17, 0.2864093640671300234 ) ) ;
#249 = SECURITY_CLASSIFICATION_LEVEL ( 'unclassified' ) ;
#250 = DIRECTION ( 'NONE',  ( -3.491481338843133355E-15, 0.0000000000000000000, -1.000000000000000000 ) ) ;
#251 = DIRECTION ( 'NONE',  ( -1.000000000000000000, 0.0000000000000000000, 5.782411586589379332E-15 ) ) ;
#252 = COORDINATED_UNIVERSAL_TIME_OFFSET ( 1, 0, .AHEAD. ) ;
#253 = LOCAL_TIME ( 8, 11, 9.000000000000000000, #270 ) ;
#254 = ORIENTED_EDGE ( 'NONE', *, *, #62, .T. ) ;
#255 = EDGE_LOOP ( 'NONE', ( #229 ) ) ;
#256 = EDGE_LOOP ( 'NONE', ( #204 ) ) ;
#257 = EDGE_LOOP ( 'NONE', ( #109 ) ) ;
#258 = APPROVAL_PERSON_ORGANIZATION ( #21, #198, #221 ) ;
#259 =( NAMED_UNIT ( * ) PLANE_ANGLE_UNIT ( ) SI_UNIT ( $, .RADIAN. ) );
#260 = DIRECTION ( 'NONE',  ( -3.491481338843133355E-15, 0.0000000000000000000, -1.000000000000000000 ) ) ;
#261 = CARTESIAN_POINT ( 'NONE',  ( 9.999929499103137785E-16, 0.0000000000000000000, 0.2864093640671300789 ) ) ;
#262 = CONICAL_SURFACE ( 'NONE', #242, 0.2510000000000000564, 1.047197551196601406 ) ;
#263 = DIRECTION ( 'NONE',  ( -3.491481338843133355E-15, 0.0000000000000000000, -1.000000000000000000 ) ) ;
#264 = PERSON_AND_ORGANIZATION ( #272, #235 ) ;
#265 = CARTESIAN_POINT ( 'NONE',  ( 9.776147748760773395E-15, 0.0000000000000000000, 2.799999999999999822 ) ) ;
#266 = DIRECTION ( 'NONE',  ( 1.000000000000000000, 0.0000000000000000000, -3.491481338843133355E-15 ) ) ;
#267 = CARTESIAN_POINT ( 'NONE',  ( 1.067980961487340080E-14, 0.0000000000000000000, 3.058819045102513901 ) ) ;
#268 = DIRECTION ( 'NONE',  ( -3.491481338843133355E-15, 0.0000000000000000000, -1.000000000000000000 ) ) ;
#269 = CIRCLE ( 'NONE', #282, 1.199999999999995293 ) ;
#270 = COORDINATED_UNIVERSAL_TIME_OFFSET ( 1, 0, .AHEAD. ) ;
#271 = CYLINDRICAL_SURFACE ( 'NONE', #148, 0.2510000000000000564 ) ;
#272 = PERSON ( 'UNSPECIFIED', 'UNSPECIFIED', 'UNSPECIFIED', ('UNSPECIFIED'), ('UNSPECIFIED'), ('UNSPECIFIED') ) ;
#273 = EDGE_CURVE ( 'NONE', #321, #321, #227, .T. ) ;
#274 = CIRCLE ( 'NONE', #48, 0.2199999999999996958 ) ;
#275 = CIRCLE ( 'NONE', #97, 0.3699999999999999956 ) ;
#276 = CYLINDRICAL_SURFACE ( 'NONE', #105, 0.2510000000000000564 ) ;
#277 = EDGE_LOOP ( 'NONE', ( #294 ) ) ;
#278 = FACE_OUTER_BOUND ( 'NONE', #277, .T. ) ;
#279 = ORIENTED_EDGE ( 'NONE', *, *, #233, .F. ) ;
#280 = EDGE_LOOP ( 'NONE', ( #76 ) ) ;
#281 = CC_DESIGN_PERSON_AND_ORGANIZATION_ASSIGNMENT ( #72, #52, ( #354 ) ) ;
#282 = AXIS2_PLACEMENT_3D ( 'NONE', #318, #154, #251 ) ;
#283 = ORIENTED_EDGE ( 'NONE', *, *, #347, .T. ) ;
#284 = CARTESIAN_POINT ( 'NONE',  ( -0.2509999999999990572, 0.0000000000000000000, 0.2864093640671309116 ) ) ;
#285 = DIRECTION ( 'NONE',  ( 1.000000000000000000, 0.0000000000000000000, 0.0000000000000000000 ) ) ;
#286 = DIRECTION ( 'NONE',  ( -1.000000000000000000, 0.0000000000000000000, 3.516331370223257730E-15 ) ) ;
#287 = ORIENTED_EDGE ( 'NONE', *, *, #111, .F. ) ;
#288 = TOROIDAL_SURFACE ( 'NONE', #293, 0.7199999999999997513, 0.5000000000000000000 ) ;
#289 = AXIS2_PLACEMENT_3D ( 'NONE', #215, #43, #124 ) ;
#290 = DIRECTION ( 'NONE',  ( -3.491481338843133355E-15, 0.0000000000000000000, -1.000000000000000000 ) ) ;
#291 = CARTESIAN_POINT ( 'NONE',  ( 5.366570290130103378E-16, 0.0000000000000000000, 0.1537046820335652153 ) ) ;
#292 = CARTESIAN_POINT ( 'NONE',  ( -0.2199999999999981137, 0.0000000000000000000, 0.4597269915607019586 ) ) ;
#293 = AXIS2_PLACEMENT_3D ( 'NONE', #231, #84, #203 ) ;
#294 = ORIENTED_EDGE ( 'NONE', *, *, #80, .F. ) ;
#295 = DIRECTION ( 'NONE',  ( -1.000000000000000000, 0.0000000000000000000, 3.491481338843133355E-15 ) ) ;
#296 = FACE_OUTER_BOUND ( 'NONE', #314, .T. ) ;
#297 = DIRECTION ( 'NONE',  ( -3.491481338843133355E-15, 0.0000000000000000000, -1.000000000000000000 ) ) ;
#298 = DIRECTION ( 'NONE',  ( 3.491481338843133355E-15, 0.0000000000000000000, 1.000000000000000000 ) ) ;
#299 = ADVANCED_FACE ( 'NONE', ( #92, #197 ), #78, .T. ) ;
#300 = DIRECTION ( 'NONE',  ( -3.491481338843133355E-15, 0.0000000000000000000, -1.000000000000000000 ) ) ;
#301 = APPROVAL_STATUS ( 'not_yet_approved' ) ;
#302 = CARTESIAN_POINT ( 'NONE',  ( -1.499999999999863665, 0.0000000000000000000, 37.70000000000000284 ) ) ;
#303 = FACE_OUTER_BOUND ( 'NONE', #30, .T. ) ;
#304 = CIRCLE ( 'NONE', #120, 1.499999999999995337 ) ;
#305 = CIRCLE ( 'NONE', #116, 0.2510000000000000564 ) ;
#306 = EDGE_LOOP ( 'NONE', ( #174 ) ) ;
#307 = EDGE_LOOP ( 'NONE', ( #279 ) ) ;
#308 = CALENDAR_DATE ( 2021, 17, 12 ) ;
#309 = EDGE_LOOP ( 'NONE', ( #178 ) ) ;
#310 = DIRECTION ( 'NONE',  ( -3.491481338843133355E-15, 0.0000000000000000000, -1.000000000000000000 ) ) ;
#311 = TOROIDAL_SURFACE ( 'NONE', #162, 1.219999999999999751, 1.000000000000000000 ) ;
#312 = FACE_OUTER_BOUND ( 'NONE', #57, .T. ) ;
#313 = CC_DESIGN_DATE_AND_TIME_ASSIGNMENT ( #357, #170, ( #239 ) ) ;
#314 = EDGE_LOOP ( 'NONE', ( #81 ) ) ;
#315 = LOCAL_TIME ( 8, 11, 9.000000000000000000, #355 ) ;
#316 = AXIS2_PLACEMENT_3D ( 'NONE', #113, #86, #285 ) ;
#317 = MECHANICAL_CONTEXT ( 'NONE', #352, 'mechanical' ) ;
#318 = CARTESIAN_POINT ( 'NONE',  ( 1.326762908760390423E-13, 0.0000000000000000000, 38.00000000000000000 ) ) ;
#319 = FACE_BOUND ( 'NONE', #60, .T. ) ;
#320 = CC_DESIGN_PERSON_AND_ORGANIZATION_ASSIGNMENT ( #328, #245, ( #239 ) ) ;
#321 = VERTEX_POINT ( 'NONE', #63 ) ;
#322 = AXIS2_PLACEMENT_3D ( 'NONE', #126, #73, #356 ) ;
#323 = DIRECTION ( 'NONE',  ( -3.491481338843133355E-15, 0.0000000000000000000, -1.000000000000000000 ) ) ;
#324 = VERTEX_POINT ( 'NONE', #187 ) ;
#325 = FACE_OUTER_BOUND ( 'NONE', #114, .T. ) ;
#326 = DIRECTION ( 'NONE',  ( -1.000000000000000000, 0.0000000000000000000, 3.455624454137064976E-15 ) ) ;
#327 = DIRECTION ( 'NONE',  ( -1.000000000000000000, 0.0000000000000000000, 3.491481338843133355E-15 ) ) ;
#328 = PERSON_AND_ORGANIZATION ( #272, #235 ) ;
#329 = VERTEX_POINT ( 'NONE', #331 ) ;
#330 = DATE_AND_TIME ( #125, #173 ) ;
#331 = CARTESIAN_POINT ( 'NONE',  ( -0.2509999999999998899, 0.0000000000000000000, 0.06400000000000088951 ) ) ;
#332 = CARTESIAN_POINT ( 'NONE',  ( 1.316288464743861212E-13, 0.0000000000000000000, 37.69999999999999574 ) ) ;
#333 = DATE_AND_TIME ( #101, #315 ) ;
#334 = CARTESIAN_POINT ( 'NONE',  ( 9.776147748760773395E-15, 0.0000000000000000000, 2.799999999999999822 ) ) ;
#335 = APPROVAL_ROLE ( '' ) ;
#336 = DIRECTION ( 'NONE',  ( -1.000000000000000000, 0.0000000000000000000, 3.491481338843133355E-15 ) ) ;
#337 = AXIS2_PLACEMENT_3D ( 'NONE', #248, #158, #349 ) ;
#338 = EDGE_LOOP ( 'NONE', ( #108 ) ) ;
#339 = CARTESIAN_POINT ( 'NONE',  ( 4.633359208973042296E-16, 0.0000000000000000000, 0.1327046820335651134 ) ) ;
#340 = CIRCLE ( 'NONE', #59, 0.2510000000000000564 ) ;
#341 = FACE_OUTER_BOUND ( 'NONE', #146, .T. ) ;
#342 = ORIENTED_EDGE ( 'NONE', *, *, #347, .F. ) ;
#343 = CARTESIAN_POINT ( 'NONE',  ( 0.0000000000000000000, 0.0000000000000000000, 0.0000000000000000000 ) ) ;
#344 = VERTEX_POINT ( 'NONE', #61 ) ;
#345 = CARTESIAN_POINT ( 'NONE',  ( 7.765381442243531373E-16, 0.0000000000000000000, 0.2224093640671300498 ) ) ;
#346 = CARTESIAN_POINT ( 'NONE',  ( 1.326762908760390423E-13, 0.0000000000000000000, 38.00000000000000000 ) ) ;
#347 = EDGE_CURVE ( 'NONE', #206, #206, #305, .T. ) ;
#348 = DIRECTION ( 'NONE',  ( -1.000000000000000000, 0.0000000000000000000, 3.469446951953624444E-15 ) ) ;
#349 = DIRECTION ( 'NONE',  ( 1.000000000000000000, 0.0000000000000000000, -3.491481338843133355E-15 ) ) ;
#350 = APPLICATION_CONTEXT ( 'configuration controlled 3d designs of mechanical parts and assemblies' ) ;
#351 = CARTESIAN_POINT ( 'NONE',  ( 0.0000000000000000000, 0.0000000000000000000, 0.0000000000000000000 ) ) ;
#352 = APPLICATION_CONTEXT ( 'configuration controlled 3d designs of mechanical parts and assemblies' ) ;
#353 = FACE_BOUND ( 'NONE', #228, .T. ) ;
#354 = PRODUCT_DEFINITION ( 'UNKNOWN', '', #363, #7 ) ;
#355 = COORDINATED_UNIVERSAL_TIME_OFFSET ( 1, 0, .AHEAD. ) ;
#356 = DIRECTION ( 'NONE',  ( 1.000000000000000000, 0.0000000000000000000, -3.469446951953624444E-15 ) ) ;
#357 = DATE_AND_TIME ( #360, #253 ) ;
#358 = CARTESIAN_POINT ( 'NONE',  ( 0.0000000000000000000, 0.0000000000000000000, 0.0000000000000000000 ) ) ;
#359 = EDGE_CURVE ( 'NONE', #37, #37, #340, .T. ) ;
#360 = CALENDAR_DATE ( 2021, 17, 12 ) ;
#361 = ORIENTED_EDGE ( 'NONE', *, *, #102, .T. ) ;
#362 = CC_DESIGN_PERSON_AND_ORGANIZATION_ASSIGNMENT ( #264, #88, ( #117 ) ) ;
#363 = PRODUCT_DEFINITION_FORMATION_WITH_SPECIFIED_SOURCE ( 'ANY', '', #117, .NOT_KNOWN. ) ;
ENDSEC;
END-ISO-10303-21;
