ISO-10303-21;
HEADER;
FILE_DESCRIPTION (( 'STEP AP203' ),
    '1' );
FILE_NAME ('378076.step',
    '2021-12-17T07:11:09',
    ( '' ),
    ( '' ),
    'SwSTEP 2.0',
    'SolidWorks 2019',
    '' );
FILE_SCHEMA (( 'CONFIG_CONTROL_DESIGN' ));
ENDSEC;

DATA;
#1 = DIRECTION ( 'NONE',  ( -1.000000000000000000, 0.0000000000000000000, 3.491481338843133355E-15 ) ) ;
#2 = ADVANCED_FACE ( 'NONE', ( #140, #313 ), #58, .T. ) ;
#3 = FACE_BOUND ( 'NONE', #67, .T. ) ;
#4 = ORIENTED_EDGE ( 'NONE', *, *, #297, .F. ) ;
#5 = DATE_TIME_ROLE ( 'creation_date' ) ;
#6 = MANIFOLD_SOLID_BREP ( 'Corps-Déplacer/Copier1[1]', #116 ) ;
#7 = ORIENTED_EDGE ( 'NONE', *, *, #93, .T. ) ;
#8 = SHAPE_DEFINITION_REPRESENTATION ( #318, #176 ) ;
#9 = LOCAL_TIME ( 8, 11, 9.000000000000000000, #231 ) ;
#10 = EDGE_CURVE ( 'NONE', #175, #175, #16, .T. ) ;
#11 = DIRECTION ( 'NONE',  ( 3.491481338843133355E-15, 0.0000000000000000000, 1.000000000000000000 ) ) ;
#12 = EDGE_CURVE ( 'NONE', #201, #201, #215, .T. ) ;
#13 = EDGE_LOOP ( 'NONE', ( #117 ) ) ;
#14 = PLANE ( 'NONE',  #285 ) ;
#15 = ADVANCED_FACE ( 'NONE', ( #94, #202 ), #317, .T. ) ;
#16 = CIRCLE ( 'NONE', #164, 0.2290000000000000091 ) ;
#17 = CARTESIAN_POINT ( 'NONE',  ( 8.728703347107833388E-15, 0.0000000000000000000, 2.500000000000000000 ) ) ;
#18 = PERSON_AND_ORGANIZATION ( #29, #275 ) ;
#19 = FACE_OUTER_BOUND ( 'NONE', #13, .T. ) ;
#20 = SECURITY_CLASSIFICATION_LEVEL ( 'unclassified' ) ;
#21 = CARTESIAN_POINT ( 'NONE',  ( 0.0000000000000000000, 0.0000000000000000000, 0.0000000000000000000 ) ) ;
#22 = DIRECTION ( 'NONE',  ( -3.491481338843133355E-15, 0.0000000000000000000, -1.000000000000000000 ) ) ;
#23 = AXIS2_PLACEMENT_3D ( 'NONE', #222, #268, #219 ) ;
#24 = AXIS2_PLACEMENT_3D ( 'NONE', #236, #258, #347 ) ;
#25 = ADVANCED_FACE ( 'NONE', ( #276, #221 ), #199, .T. ) ;
#26 = VERTEX_POINT ( 'NONE', #135 ) ;
#27 = EDGE_LOOP ( 'NONE', ( #334 ) ) ;
#28 = PLANE ( 'NONE',  #216 ) ;
#29 = PERSON ( 'UNSPECIFIED', 'UNSPECIFIED', 'UNSPECIFIED', ('UNSPECIFIED'), ('UNSPECIFIED'), ('UNSPECIFIED') ) ;
#30 = APPROVAL_ROLE ( '' ) ;
#31 = VERTEX_POINT ( 'NONE', #88 ) ;
#32 = DIRECTION ( 'NONE',  ( 1.000000000000000000, 0.0000000000000000000, -3.491481338843133355E-15 ) ) ;
#33 = EDGE_LOOP ( 'NONE', ( #337 ) ) ;
#34 = AXIS2_PLACEMENT_3D ( 'NONE', #169, #55, #143 ) ;
#35 = CARTESIAN_POINT ( 'NONE',  ( -1.199999999999862732, 0.0000000000000000000, 38.00000000000000711 ) ) ;
#36 = APPLICATION_CONTEXT ( 'configuration controlled 3d designs of mechanical parts and assemblies' ) ;
#37 = EDGE_LOOP ( 'NONE', ( #151 ) ) ;
#38 = EDGE_CURVE ( 'NONE', #26, #26, #329, .T. ) ;
#39 = CIRCLE ( 'NONE', #264, 1.499999999999995559 ) ;
#40 = ADVANCED_FACE ( 'NONE', ( #204, #41 ), #64, .T. ) ;
#41 = FACE_OUTER_BOUND ( 'NONE', #267, .T. ) ;
#42 = ORIENTED_EDGE ( 'NONE', *, *, #38, .T. ) ;
#43 = AXIS2_PLACEMENT_3D ( 'NONE', #324, #351, #98 ) ;
#44 = CARTESIAN_POINT ( 'NONE',  ( 8.987012112043679153E-16, -6.093269639897918612E-17, 0.2573982570682000204 ) ) ;
#45 = APPLICATION_PROTOCOL_DEFINITION ( 'international standard', 'config_control_design', 1994, #36 ) ;
#46 = CYLINDRICAL_SURFACE ( 'NONE', #237, 0.3350000000000000200 ) ;
#47 = ORIENTED_EDGE ( 'NONE', *, *, #248, .T. ) ;
#48 = FACE_OUTER_BOUND ( 'NONE', #312, .T. ) ;
#49 = EDGE_CURVE ( 'NONE', #284, #284, #39, .T. ) ;
#50 = EDGE_LOOP ( 'NONE', ( #89 ) ) ;
#51 = PLANE ( 'NONE',  #301 ) ;
#52 = DIRECTION ( 'NONE',  ( 0.0000000000000000000, 0.0000000000000000000, 1.000000000000000000 ) ) ;
#53 = AXIS2_PLACEMENT_3D ( 'NONE', #76, #109, #252 ) ;
#54 = ORIENTED_EDGE ( 'NONE', *, *, #242, .F. ) ;
#55 = DIRECTION ( 'NONE',  ( -3.491481338843133355E-15, 0.0000000000000000000, -1.000000000000000000 ) ) ;
#56 = ADVANCED_FACE ( 'NONE', ( #350 ), #14, .T. ) ;
#57 = ORIENTED_EDGE ( 'NONE', *, *, #242, .T. ) ;
#58 = CONICAL_SURFACE ( 'NONE', #291, 1.199999999999995293, 0.7853981633974453924 ) ;
#59 = VERTEX_POINT ( 'NONE', #286 ) ;
#60 = DIRECTION ( 'NONE',  ( -3.491481338843133355E-15, 0.0000000000000000000, -1.000000000000000000 ) ) ;
#61 = APPROVAL_ROLE ( '' ) ;
#62 = DATE_AND_TIME ( #349, #295 ) ;
#63 = AXIS2_PLACEMENT_3D ( 'NONE', #115, #224, #348 ) ;
#64 = CYLINDRICAL_SURFACE ( 'NONE', #187, 0.1999999999999997613 ) ;
#65 = EDGE_CURVE ( 'NONE', #168, #168, #83, .T. ) ;
#66 = CONICAL_SURFACE ( 'NONE', #125, 0.2289999999999999813, 1.047197551196600740 ) ;
#67 = EDGE_LOOP ( 'NONE', ( #342 ) ) ;
#68 = DIRECTION ( 'NONE',  ( -3.491481338843133355E-15, 0.0000000000000000000, -1.000000000000000000 ) ) ;
#69 = PRODUCT_DEFINITION ( 'UNKNOWN', '', #159, #134 ) ;
#70 = EDGE_LOOP ( 'NONE', ( #185 ) ) ;
#71 = FACE_OUTER_BOUND ( 'NONE', #27, .T. ) ;
#72 = ORIENTED_EDGE ( 'NONE', *, *, #93, .F. ) ;
#73 = PLANE ( 'NONE',  #361 ) ;
#74 = VERTEX_POINT ( 'NONE', #141 ) ;
#75 = EDGE_LOOP ( 'NONE', ( #7 ) ) ;
#76 = CARTESIAN_POINT ( 'NONE',  ( 1.484594251420837447E-15, 0.0000000000000000000, 0.4252046931783809991 ) ) ;
#77 = COORDINATED_UNIVERSAL_TIME_OFFSET ( 1, 0, .AHEAD. ) ;
#78 = ORIENTED_EDGE ( 'NONE', *, *, #49, .F. ) ;
#79 = DIRECTION ( 'NONE',  ( -3.491481338843133355E-15, 0.0000000000000000000, -1.000000000000000000 ) ) ;
#80 = APPROVAL_DATE_TIME ( #328, #352 ) ;
#81 = CARTESIAN_POINT ( 'NONE',  ( 1.326762908760390423E-13, 0.0000000000000000000, 38.00000000000000000 ) ) ;
#82 = CARTESIAN_POINT ( 'NONE',  ( 4.161815328831743052E-16, 0.0000000000000000000, 0.1191991285341000295 ) ) ;
#83 = CIRCLE ( 'NONE', #107, 0.2289999999999999813 ) ;
#84 = CC_DESIGN_DATE_AND_TIME_ASSIGNMENT ( #62, #92, ( #173 ) ) ;
#85 = CARTESIAN_POINT ( 'NONE',  ( -0.2340741737109203191, 0.0000000000000000000, 2.758819045102514966 ) ) ;
#86 = TOROIDAL_SURFACE ( 'NONE', #136, 1.199999999999999734, 1.000000000000000000 ) ;
#87 = CC_DESIGN_APPROVAL ( #178, ( #159 ) ) ;
#88 = CARTESIAN_POINT ( 'NONE',  ( -0.2289999999999999813, 0.0000000000000000000, 7.995492265950775265E-16 ) ) ;
#89 = ORIENTED_EDGE ( 'NONE', *, *, #149, .T. ) ;
#90 = COORDINATED_UNIVERSAL_TIME_OFFSET ( 1, 0, .AHEAD. ) ;
#91 = EDGE_LOOP ( 'NONE', ( #72 ) ) ;
#92 = DATE_TIME_ROLE ( 'classification_date' ) ;
#93 = EDGE_CURVE ( 'NONE', #31, #31, #249, .T. ) ;
#94 = FACE_OUTER_BOUND ( 'NONE', #325, .T. ) ;
#95 = PRODUCT_RELATED_PRODUCT_CATEGORY ( 'detail', '', ( #287 ) ) ;
#96 = CIRCLE ( 'NONE', #127, 1.499999999999995337 ) ;
#97 = CARTESIAN_POINT ( 'NONE',  ( 0.0000000000000000000, 0.0000000000000000000, 0.0000000000000000000 ) ) ;
#98 = DIRECTION ( 'NONE',  ( -1.000000000000000000, 0.0000000000000000000, 3.550880477572612811E-15 ) ) ;
#99 = DIRECTION ( 'NONE',  ( -3.491481338843133355E-15, 0.0000000000000000000, -1.000000000000000000 ) ) ;
#100 = APPROVAL_PERSON_ORGANIZATION ( #189, #352, #336 ) ;
#101 = CC_DESIGN_PERSON_AND_ORGANIZATION_ASSIGNMENT ( #133, #110, ( #173 ) ) ;
#102 = ORIENTED_EDGE ( 'NONE', *, *, #12, .F. ) ;
#103 = CARTESIAN_POINT ( 'NONE',  ( 2.025059176529016616E-16, 0.0000000000000000000, 0.05799999999999998213 ) ) ;
#104 = DIRECTION ( 'NONE',  ( -1.000000000000000000, 0.0000000000000000000, 3.705499518539591322E-15 ) ) ;
#105 = DIRECTION ( 'NONE',  ( 3.491481338843133355E-15, 0.0000000000000000000, 1.000000000000000000 ) ) ;
#106 = VERTEX_POINT ( 'NONE', #85 ) ;
#107 = AXIS2_PLACEMENT_3D ( 'NONE', #103, #209, #321 ) ;
#108 = AXIS2_PLACEMENT_3D ( 'NONE', #269, #52, #194 ) ;
#109 = DIRECTION ( 'NONE',  ( -3.491481338843133355E-15, 0.0000000000000000000, -1.000000000000000000 ) ) ;
#110 = PERSON_AND_ORGANIZATION_ROLE ( 'classification_officer' ) ;
#111 = FACE_OUTER_BOUND ( 'NONE', #239, .T. ) ;
#112 = CALENDAR_DATE ( 2021, 17, 12 ) ;
#113 = CARTESIAN_POINT ( 'NONE',  ( 0.0000000000000000000, 0.0000000000000000000, 0.0000000000000000000 ) ) ;
#114 = DATE_AND_TIME ( #300, #251 ) ;
#115 = CARTESIAN_POINT ( 'NONE',  ( 0.0000000000000000000, 0.0000000000000000000, 0.0000000000000000000 ) ) ;
#116 = CLOSED_SHELL ( 'NONE', ( #205, #266, #40, #319, #210, #25, #2, #316 ) ) ;
#117 = ORIENTED_EDGE ( 'NONE', *, *, #12, .T. ) ;
#118 = CC_DESIGN_PERSON_AND_ORGANIZATION_ASSIGNMENT ( #244, #358, ( #159 ) ) ;
#119 = DIRECTION ( 'NONE',  ( -3.491481338843133355E-15, 0.0000000000000000000, -1.000000000000000000 ) ) ;
#120 = CARTESIAN_POINT ( 'NONE',  ( 8.728703347107834966E-15, 0.0000000000000000000, 2.500000000000000444 ) ) ;
#121 = CALENDAR_DATE ( 2021, 17, 12 ) ;
#122 = EDGE_CURVE ( 'NONE', #59, #59, #315, .T. ) ;
#123 = CARTESIAN_POINT ( 'NONE',  ( 6.961952935514662044E-16, 0.0000000000000000000, 0.1993982570681999966 ) ) ;
#124 = AXIS2_PLACEMENT_3D ( 'NONE', #21, #283, #250 ) ;
#125 = AXIS2_PLACEMENT_3D ( 'NONE', #246, #360, #217 ) ;
#126 = DIRECTION ( 'NONE',  ( -3.491481338843133355E-15, 0.0000000000000000000, -1.000000000000000000 ) ) ;
#127 = AXIS2_PLACEMENT_3D ( 'NONE', #338, #79, #193 ) ;
#128 = EDGE_LOOP ( 'NONE', ( #102 ) ) ;
#129 = DIRECTION ( 'NONE',  ( -3.491481338843133355E-15, 0.0000000000000000000, -1.000000000000000000 ) ) ;
#130 = ADVANCED_FACE ( 'NONE', ( #206, #294 ), #305, .T. ) ;
#131 = EDGE_LOOP ( 'NONE', ( #340 ) ) ;
#132 = DIRECTION ( 'NONE',  ( -1.000000000000000000, 0.0000000000000000000, 3.491481338843133355E-15 ) ) ;
#133 = PERSON_AND_ORGANIZATION ( #29, #275 ) ;
#134 = DESIGN_CONTEXT ( 'detailed design', #339, 'design' ) ;
#135 = CARTESIAN_POINT ( 'NONE',  ( -0.2289999999999992875, 0.0000000000000000000, 0.1993982570682007738 ) ) ;
#136 = AXIS2_PLACEMENT_3D ( 'NONE', #120, #60, #145 ) ;
#137 = DIRECTION ( 'NONE',  ( -3.491481338843133355E-15, 0.0000000000000000000, -1.000000000000000000 ) ) ;
#138 = CC_DESIGN_SECURITY_CLASSIFICATION ( #173, ( #159 ) ) ;
#139 = CARTESIAN_POINT ( 'NONE',  ( -0.3349999999999995759, 0.0000000000000000000, 0.1191991285341011952 ) ) ;
#140 = FACE_OUTER_BOUND ( 'NONE', #33, .T. ) ;
#141 = CARTESIAN_POINT ( 'NONE',  ( -0.1999999999999982625, 0.0000000000000000000, 0.4252046931783817207 ) ) ;
#142 = EDGE_LOOP ( 'NONE', ( #200 ) ) ;
#143 = DIRECTION ( 'NONE',  ( -1.000000000000000000, 0.0000000000000000000, 3.491481338843133750E-15 ) ) ;
#144 = EDGE_LOOP ( 'NONE', ( #211 ) ) ;
#145 = DIRECTION ( 'NONE',  ( -1.000000000000000000, 0.0000000000000000000, 3.491481338843133750E-15 ) ) ;
#146 = AXIS2_PLACEMENT_3D ( 'NONE', #97, #126, #238 ) ;
#147 = AXIS2_PLACEMENT_3D ( 'NONE', #213, #302, #327 ) ;
#148 = DIRECTION ( 'NONE',  ( -1.000000000000000000, 0.0000000000000000000, 3.550880477572612811E-15 ) ) ;
#149 = EDGE_CURVE ( 'NONE', #314, #314, #234, .T. ) ;
#150 = CARTESIAN_POINT ( 'NONE',  ( -1.499999999999863665, 0.0000000000000000000, 37.70000000000000284 ) ) ;
#151 = ORIENTED_EDGE ( 'NONE', *, *, #49, .T. ) ;
#152 = AXIS2_PLACEMENT_3D ( 'NONE', #281, #137, #186 ) ;
#153 = CC_DESIGN_APPROVAL ( #157, ( #173 ) ) ;
#154 = ORIENTED_EDGE ( 'NONE', *, *, #38, .F. ) ;
#155 = DIRECTION ( 'NONE',  ( -1.000000000000000000, 0.0000000000000000000, 3.491481338843133750E-15 ) ) ;
#156 = CIRCLE ( 'NONE', #345, 0.3350000000000000200 ) ;
#157 = APPROVAL ( #230, 'UNSPECIFIED' ) ;
#158 = AXIS2_PLACEMENT_3D ( 'NONE', #188, #355, #104 ) ;
#159 = PRODUCT_DEFINITION_FORMATION_WITH_SPECIFIED_SOURCE ( 'ANY', '', #287, .NOT_KNOWN. ) ;
#160 = DIRECTION ( 'NONE',  ( -1.000000000000000000, 0.0000000000000000000, 3.479156225140051412E-15 ) ) ;
#161 = DIRECTION ( 'NONE',  ( -3.491481338843133355E-15, 0.0000000000000000000, -1.000000000000000000 ) ) ;
#162 = PERSON_AND_ORGANIZATION ( #29, #275 ) ;
#163 = PERSON_AND_ORGANIZATION ( #29, #275 ) ;
#164 = AXIS2_PLACEMENT_3D ( 'NONE', #195, #309, #148 ) ;
#165 = FACE_OUTER_BOUND ( 'NONE', #70, .T. ) ;
#166 = CARTESIAN_POINT ( 'NONE',  ( -0.1999999999999910183, 0.0000000000000000000, 2.500000000000000888 ) ) ;
#167 = CC_DESIGN_PERSON_AND_ORGANIZATION_ASSIGNMENT ( #162, #271, ( #159 ) ) ;
#168 = VERTEX_POINT ( 'NONE', #279 ) ;
#169 = CARTESIAN_POINT ( 'NONE',  ( 0.0000000000000000000, 0.0000000000000000000, 0.0000000000000000000 ) ) ;
#170 = APPLICATION_PROTOCOL_DEFINITION ( 'international standard', 'config_control_design', 1994, #339 ) ;
#171 = EDGE_CURVE ( 'NONE', #174, #174, #96, .T. ) ;
#172 = CONICAL_SURFACE ( 'NONE', #24, 0.3350000000000000200, 1.047197551196599852 ) ;
#173 = SECURITY_CLASSIFICATION ( '', '', #20 ) ;
#174 = VERTEX_POINT ( 'NONE', #150 ) ;
#175 = VERTEX_POINT ( 'NONE', #229 ) ;
#176 = ADVANCED_BREP_SHAPE_REPRESENTATION ( '378076', ( #6, #245, #108 ), #180 ) ;
#177 = APPROVAL_PERSON_ORGANIZATION ( #292, #157, #61 ) ;
#178 = APPROVAL ( #223, 'UNSPECIFIED' ) ;
#179 = CONICAL_SURFACE ( 'NONE', #23, 1.499999999999995559, 0.2617993877991426355 ) ;
#180 =( GEOMETRIC_REPRESENTATION_CONTEXT ( 3 ) GLOBAL_UNCERTAINTY_ASSIGNED_CONTEXT ( ( #272 ) ) GLOBAL_UNIT_ASSIGNED_CONTEXT ( ( #214, #282, #220 ) ) REPRESENTATION_CONTEXT ( 'NONE', 'WORKASPACE' ) );
#181 = EDGE_LOOP ( 'NONE', ( #323 ) ) ;
#182 = DIRECTION ( 'NONE',  ( -1.000000000000000000, 0.0000000000000000000, 3.432517794986859169E-15 ) ) ;
#183 = DIRECTION ( 'NONE',  ( -1.000000000000000000, 0.0000000000000000000, 3.469446951953624444E-15 ) ) ;
#184 = CC_DESIGN_PERSON_AND_ORGANIZATION_ASSIGNMENT ( #333, #228, ( #287 ) ) ;
#185 = ORIENTED_EDGE ( 'NONE', *, *, #149, .F. ) ;
#186 = DIRECTION ( 'NONE',  ( -1.000000000000000000, 0.0000000000000000000, 5.782411586589379332E-15 ) ) ;
#187 = AXIS2_PLACEMENT_3D ( 'NONE', #296, #68, #155 ) ;
#188 = CARTESIAN_POINT ( 'NONE',  ( 9.632365213220460790E-15, 0.0000000000000000000, 2.758819045102514078 ) ) ;
#189 = PERSON_AND_ORGANIZATION ( #29, #275 ) ;
#190 = EDGE_LOOP ( 'NONE', ( #42 ) ) ;
#191 = CARTESIAN_POINT ( 'NONE',  ( 1.326762908760390423E-13, 0.0000000000000000000, 38.00000000000000000 ) ) ;
#192 = EDGE_LOOP ( 'NONE', ( #306 ) ) ;
#193 = DIRECTION ( 'NONE',  ( -1.000000000000000000, 0.0000000000000000000, 4.625929269271500311E-15 ) ) ;
#194 = DIRECTION ( 'NONE',  ( 1.000000000000000000, 0.0000000000000000000, 0.0000000000000000000 ) ) ;
#195 = CARTESIAN_POINT ( 'NONE',  ( 8.987012112043679153E-16, 0.0000000000000000000, 0.2573982570682000204 ) ) ;
#196 = DIRECTION ( 'NONE',  ( 1.000000000000000000, 0.0000000000000000000, -3.491481338843133355E-15 ) ) ;
#197 = MECHANICAL_CONTEXT ( 'NONE', #36, 'mechanical' ) ;
#198 = EDGE_LOOP ( 'NONE', ( #47 ) ) ;
#199 = CYLINDRICAL_SURFACE ( 'NONE', #63, 1.499999999999995337 ) ;
#200 = ORIENTED_EDGE ( 'NONE', *, *, #171, .T. ) ;
#201 = VERTEX_POINT ( 'NONE', #290 ) ;
#202 = FACE_OUTER_BOUND ( 'NONE', #144, .T. ) ;
#203 = EDGE_CURVE ( 'NONE', #247, #247, #156, .T. ) ;
#204 = FACE_OUTER_BOUND ( 'NONE', #354, .T. ) ;
#205 = ADVANCED_FACE ( 'NONE', ( #48 ), #73, .F. ) ;
#206 = FACE_OUTER_BOUND ( 'NONE', #91, .T. ) ;
#207 = AXIS2_PLACEMENT_3D ( 'NONE', #17, #129, #310 ) ;
#208 = EDGE_LOOP ( 'NONE', ( #299 ) ) ;
#209 = DIRECTION ( 'NONE',  ( -3.491481338843133355E-15, 0.0000000000000000000, -1.000000000000000000 ) ) ;
#210 = ADVANCED_FACE ( 'NONE', ( #212, #357 ), #179, .T. ) ;
#211 = ORIENTED_EDGE ( 'NONE', *, *, #122, .T. ) ;
#212 = FACE_BOUND ( 'NONE', #181, .T. ) ;
#213 = CARTESIAN_POINT ( 'NONE',  ( 1.484594251420837447E-15, 0.0000000000000000000, 0.4252046931783809991 ) ) ;
#214 =( LENGTH_UNIT ( ) NAMED_UNIT ( * ) SI_UNIT ( .MILLI., .METRE. ) );
#215 = CIRCLE ( 'NONE', #225, 0.3350000000000000200 ) ;
#216 = AXIS2_PLACEMENT_3D ( 'NONE', #191, #22, #1 ) ;
#217 = DIRECTION ( 'NONE',  ( -1.000000000000000000, 0.0000000000000000000, 3.432517794986859169E-15 ) ) ;
#218 = CARTESIAN_POINT ( 'NONE',  ( -1.499999999999969358, 0.0000000000000000000, 7.483318547427053602 ) ) ;
#219 = DIRECTION ( 'NONE',  ( 1.000000000000000000, 0.0000000000000000000, -3.469446951953624444E-15 ) ) ;
#220 =( NAMED_UNIT ( * ) SI_UNIT ( $, .STERADIAN. ) SOLID_ANGLE_UNIT ( ) );
#221 = FACE_OUTER_BOUND ( 'NONE', #142, .T. ) ;
#222 = CARTESIAN_POINT ( 'NONE',  ( 2.612786706096024294E-14, 0.0000000000000000000, 7.483318547427048273 ) ) ;
#223 = APPROVAL_STATUS ( 'not_yet_approved' ) ;
#224 = DIRECTION ( 'NONE',  ( -3.491481338843133355E-15, 0.0000000000000000000, -1.000000000000000000 ) ) ;
#225 = AXIS2_PLACEMENT_3D ( 'NONE', #232, #119, #346 ) ;
#226 = TOROIDAL_SURFACE ( 'NONE', #147, 0.6999999999999997335, 0.5000000000000000000 ) ;
#227 = EDGE_LOOP ( 'NONE', ( #78 ) ) ;
#228 = PERSON_AND_ORGANIZATION_ROLE ( 'design_owner' ) ;
#229 = CARTESIAN_POINT ( 'NONE',  ( -0.2289999999999991209, 0.0000000000000000000, 0.2573982570682007975 ) ) ;
#230 = APPROVAL_STATUS ( 'not_yet_approved' ) ;
#231 = COORDINATED_UNIVERSAL_TIME_OFFSET ( 1, 0, .AHEAD. ) ;
#232 = CARTESIAN_POINT ( 'NONE',  ( 4.825196783211940046E-16, 0.0000000000000000000, 0.1381991285341000741 ) ) ;
#233 = FACE_OUTER_BOUND ( 'NONE', #131, .T. ) ;
#234 = CIRCLE ( 'NONE', #152, 1.199999999999995293 ) ;
#235 = CC_DESIGN_PERSON_AND_ORGANIZATION_ASSIGNMENT ( #163, #308, ( #69 ) ) ;
#236 = CARTESIAN_POINT ( 'NONE',  ( 4.161815328831743052E-16, 0.0000000000000000000, 0.1191991285341000295 ) ) ;
#237 = AXIS2_PLACEMENT_3D ( 'NONE', #113, #161, #132 ) ;
#238 = DIRECTION ( 'NONE',  ( -1.000000000000000000, 0.0000000000000000000, 3.491481338843133750E-15 ) ) ;
#239 = EDGE_LOOP ( 'NONE', ( #54 ) ) ;
#240 = AXIS2_PLACEMENT_3D ( 'NONE', #123, #99, #182 ) ;
#241 = LOCAL_TIME ( 8, 11, 9.000000000000000000, #77 ) ;
#242 = EDGE_CURVE ( 'NONE', #253, #253, #257, .T. ) ;
#243 = FACE_OUTER_BOUND ( 'NONE', #75, .T. ) ;
#244 = PERSON_AND_ORGANIZATION ( #29, #275 ) ;
#245 = MANIFOLD_SOLID_BREP ( 'Corps-Déplacer/Copier1[2]', #322 ) ;
#246 = CARTESIAN_POINT ( 'NONE',  ( 6.961952935514662044E-16, 0.0000000000000000000, 0.1993982570681999966 ) ) ;
#247 = VERTEX_POINT ( 'NONE', #139 ) ;
#248 = EDGE_CURVE ( 'NONE', #106, #106, #262, .T. ) ;
#249 = CIRCLE ( 'NONE', #146, 0.2289999999999999813 ) ;
#250 = DIRECTION ( 'NONE',  ( -1.000000000000000000, 0.0000000000000000000, 3.491481338843133750E-15 ) ) ;
#251 = LOCAL_TIME ( 8, 11, 9.000000000000000000, #90 ) ;
#252 = DIRECTION ( 'NONE',  ( -1.000000000000000000, 0.0000000000000000000, 3.523657060577893749E-15 ) ) ;
#253 = VERTEX_POINT ( 'NONE', #166 ) ;
#254 = DIRECTION ( 'NONE',  ( -1.000000000000000000, 0.0000000000000000000, 5.782411586589379332E-15 ) ) ;
#255 = FACE_OUTER_BOUND ( 'NONE', #198, .T. ) ;
#256 = APPROVAL_STATUS ( 'not_yet_approved' ) ;
#257 = CIRCLE ( 'NONE', #207, 0.1999999999999997335 ) ;
#258 = DIRECTION ( 'NONE',  ( 3.491481338843133355E-15, 0.0000000000000000000, 1.000000000000000000 ) ) ;
#259 = EDGE_LOOP ( 'NONE', ( #277 ) ) ;
#260 = DIRECTION ( 'NONE',  ( -3.491481338843133355E-15, 0.0000000000000000000, -1.000000000000000000 ) ) ;
#261 = ADVANCED_FACE ( 'NONE', ( #243 ), #51, .F. ) ;
#262 = CIRCLE ( 'NONE', #158, 0.2340741737109299503 ) ;
#263 = COORDINATED_UNIVERSAL_TIME_OFFSET ( 1, 0, .AHEAD. ) ;
#264 = AXIS2_PLACEMENT_3D ( 'NONE', #293, #265, #183 ) ;
#265 = DIRECTION ( 'NONE',  ( -3.491481338843133355E-15, 0.0000000000000000000, -1.000000000000000000 ) ) ;
#266 = ADVANCED_FACE ( 'NONE', ( #71, #335 ), #226, .F. ) ;
#267 = EDGE_LOOP ( 'NONE', ( #57 ) ) ;
#268 = DIRECTION ( 'NONE',  ( 3.491481338843133355E-15, 0.0000000000000000000, 1.000000000000000000 ) ) ;
#269 = CARTESIAN_POINT ( 'NONE',  ( 0.0000000000000000000, 0.0000000000000000000, 0.0000000000000000000 ) ) ;
#270 = DIRECTION ( 'NONE',  ( -3.491481338843133355E-15, 0.0000000000000000000, -1.000000000000000000 ) ) ;
#271 = PERSON_AND_ORGANIZATION_ROLE ( 'design_supplier' ) ;
#272 = UNCERTAINTY_MEASURE_WITH_UNIT (LENGTH_MEASURE( 1.000000000000000082E-05 ), #214, 'distance_accuracy_value', 'NONE');
#273 = FACE_OUTER_BOUND ( 'NONE', #128, .T. ) ;
#274 = COORDINATED_UNIVERSAL_TIME_OFFSET ( 1, 0, .AHEAD. ) ;
#275 = ORGANIZATION ( 'UNSPECIFIED', 'UNSPECIFIED', '' ) ;
#276 = FACE_OUTER_BOUND ( 'NONE', #227, .T. ) ;
#277 = ORIENTED_EDGE ( 'NONE', *, *, #65, .T. ) ;
#278 = FACE_BOUND ( 'NONE', #190, .T. ) ;
#279 = CARTESIAN_POINT ( 'NONE',  ( -0.2289999999999997871, 0.0000000000000000000, 0.05800000000000078010 ) ) ;
#280 = ADVANCED_FACE ( 'NONE', ( #332, #19 ), #46, .T. ) ;
#281 = CARTESIAN_POINT ( 'NONE',  ( 1.326762908760390423E-13, 0.0000000000000000000, 38.00000000000000000 ) ) ;
#282 =( NAMED_UNIT ( * ) PLANE_ANGLE_UNIT ( ) SI_UNIT ( $, .RADIAN. ) );
#283 = DIRECTION ( 'NONE',  ( -3.491481338843133355E-15, 0.0000000000000000000, -1.000000000000000000 ) ) ;
#284 = VERTEX_POINT ( 'NONE', #218 ) ;
#285 = AXIS2_PLACEMENT_3D ( 'NONE', #353, #11, #298 ) ;
#286 = CARTESIAN_POINT ( 'NONE',  ( -0.2289999999999991209, 0.0000000000000000000, 0.2573982570682007975 ) ) ;
#287 = PRODUCT ( '378076', '378076', '', ( #197 ) ) ;
#288 = ADVANCED_FACE ( 'NONE', ( #273, #278 ), #66, .T. ) ;
#289 = DATE_AND_TIME ( #121, #9 ) ;
#290 = CARTESIAN_POINT ( 'NONE',  ( -0.3349999999999995204, 0.0000000000000000000, 0.1381991285341012399 ) ) ;
#291 = AXIS2_PLACEMENT_3D ( 'NONE', #81, #260, #254 ) ;
#292 = PERSON_AND_ORGANIZATION ( #29, #275 ) ;
#293 = CARTESIAN_POINT ( 'NONE',  ( 2.612786706096024294E-14, 0.0000000000000000000, 7.483318547427048273 ) ) ;
#294 = FACE_OUTER_BOUND ( 'NONE', #259, .T. ) ;
#295 = LOCAL_TIME ( 8, 11, 9.000000000000000000, #263 ) ;
#296 = CARTESIAN_POINT ( 'NONE',  ( 0.0000000000000000000, 0.0000000000000000000, 0.0000000000000000000 ) ) ;
#297 = EDGE_CURVE ( 'NONE', #74, #74, #330, .T. ) ;
#298 = DIRECTION ( 'NONE',  ( 1.000000000000000000, 0.0000000000000000000, -3.491481338843133355E-15 ) ) ;
#299 = ORIENTED_EDGE ( 'NONE', *, *, #203, .F. ) ;
#300 = CALENDAR_DATE ( 2021, 17, 12 ) ;
#301 = AXIS2_PLACEMENT_3D ( 'NONE', #326, #105, #196 ) ;
#302 = DIRECTION ( 'NONE',  ( -3.491481338843133355E-15, 0.0000000000000000000, -1.000000000000000000 ) ) ;
#303 = CALENDAR_DATE ( 2021, 17, 12 ) ;
#304 = ORIENTED_EDGE ( 'NONE', *, *, #10, .T. ) ;
#305 = CYLINDRICAL_SURFACE ( 'NONE', #34, 0.2289999999999999813 ) ;
#306 = ORIENTED_EDGE ( 'NONE', *, *, #122, .F. ) ;
#307 = DIRECTION ( 'NONE',  ( 3.491481338843133355E-15, 0.0000000000000000000, 1.000000000000000000 ) ) ;
#308 = PERSON_AND_ORGANIZATION_ROLE ( 'creator' ) ;
#309 = DIRECTION ( 'NONE',  ( -3.491481338843133355E-15, 0.0000000000000000000, -1.000000000000000000 ) ) ;
#310 = DIRECTION ( 'NONE',  ( -1.000000000000000000, 0.0000000000000000000, 4.336808689942023258E-15 ) ) ;
#311 = CC_DESIGN_DATE_AND_TIME_ASSIGNMENT ( #114, #5, ( #69 ) ) ;
#312 = EDGE_LOOP ( 'NONE', ( #304 ) ) ;
#313 = FACE_BOUND ( 'NONE', #50, .T. ) ;
#314 = VERTEX_POINT ( 'NONE', #35 ) ;
#315 = CIRCLE ( 'NONE', #43, 0.2290000000000000091 ) ;
#316 = ADVANCED_FACE ( 'NONE', ( #165 ), #28, .F. ) ;
#317 = CYLINDRICAL_SURFACE ( 'NONE', #124, 0.2289999999999999813 ) ;
#318 = PRODUCT_DEFINITION_SHAPE ( 'NONE', 'NONE',  #69 ) ;
#319 = ADVANCED_FACE ( 'NONE', ( #111, #255 ), #86, .F. ) ;
#320 = CC_DESIGN_APPROVAL ( #352, ( #69 ) ) ;
#321 = DIRECTION ( 'NONE',  ( -1.000000000000000000, 0.0000000000000000000, 3.491699136279735990E-15 ) ) ;
#322 = CLOSED_SHELL ( 'NONE', ( #261, #130, #343, #280, #288, #15, #56 ) ) ;
#323 = ORIENTED_EDGE ( 'NONE', *, *, #248, .F. ) ;
#324 = CARTESIAN_POINT ( 'NONE',  ( 8.987012112043679153E-16, 0.0000000000000000000, 0.2573982570682000204 ) ) ;
#325 = EDGE_LOOP ( 'NONE', ( #154 ) ) ;
#326 = CARTESIAN_POINT ( 'NONE',  ( 0.0000000000000000000, 0.0000000000000000000, 0.0000000000000000000 ) ) ;
#327 = DIRECTION ( 'NONE',  ( -1.000000000000000000, 0.0000000000000000000, 3.491481338843133355E-15 ) ) ;
#328 = DATE_AND_TIME ( #112, #241 ) ;
#329 = CIRCLE ( 'NONE', #240, 0.2289999999999999813 ) ;
#330 = CIRCLE ( 'NONE', #53, 0.1999999999999997613 ) ;
#331 = LOCAL_TIME ( 8, 11, 9.000000000000000000, #274 ) ;
#332 = FACE_OUTER_BOUND ( 'NONE', #208, .T. ) ;
#333 = PERSON_AND_ORGANIZATION ( #29, #275 ) ;
#334 = ORIENTED_EDGE ( 'NONE', *, *, #10, .F. ) ;
#335 = FACE_OUTER_BOUND ( 'NONE', #359, .T. ) ;
#336 = APPROVAL_ROLE ( '' ) ;
#337 = ORIENTED_EDGE ( 'NONE', *, *, #171, .F. ) ;
#338 = CARTESIAN_POINT ( 'NONE',  ( 1.316288464743861212E-13, 0.0000000000000000000, 37.69999999999999574 ) ) ;
#339 = APPLICATION_CONTEXT ( 'configuration controlled 3d designs of mechanical parts and assemblies' ) ;
#340 = ORIENTED_EDGE ( 'NONE', *, *, #203, .T. ) ;
#341 = DATE_AND_TIME ( #303, #331 ) ;
#342 = ORIENTED_EDGE ( 'NONE', *, *, #65, .F. ) ;
#343 = ADVANCED_FACE ( 'NONE', ( #3, #233 ), #172, .T. ) ;
#344 = APPROVAL_DATE_TIME ( #289, #157 ) ;
#345 = AXIS2_PLACEMENT_3D ( 'NONE', #82, #270, #160 ) ;
#346 = DIRECTION ( 'NONE',  ( -1.000000000000000000, 0.0000000000000000000, 3.479156225140051412E-15 ) ) ;
#347 = DIRECTION ( 'NONE',  ( 1.000000000000000000, 0.0000000000000000000, -3.479156225140051412E-15 ) ) ;
#348 = DIRECTION ( 'NONE',  ( -1.000000000000000000, 0.0000000000000000000, 3.491481338843133355E-15 ) ) ;
#349 = CALENDAR_DATE ( 2021, 17, 12 ) ;
#350 = FACE_OUTER_BOUND ( 'NONE', #192, .T. ) ;
#351 = DIRECTION ( 'NONE',  ( -3.491481338843133355E-15, 0.0000000000000000000, -1.000000000000000000 ) ) ;
#352 = APPROVAL ( #256, 'UNSPECIFIED' ) ;
#353 = CARTESIAN_POINT ( 'NONE',  ( 8.987012112043679153E-16, -6.093269639897918612E-17, 0.2573982570682000204 ) ) ;
#354 = EDGE_LOOP ( 'NONE', ( #4 ) ) ;
#355 = DIRECTION ( 'NONE',  ( -3.491481338843133355E-15, 0.0000000000000000000, -1.000000000000000000 ) ) ;
#356 = ORIENTED_EDGE ( 'NONE', *, *, #297, .T. ) ;
#357 = FACE_OUTER_BOUND ( 'NONE', #37, .T. ) ;
#358 = PERSON_AND_ORGANIZATION_ROLE ( 'creator' ) ;
#359 = EDGE_LOOP ( 'NONE', ( #356 ) ) ;
#360 = DIRECTION ( 'NONE',  ( -3.491481338843133355E-15, 0.0000000000000000000, -1.000000000000000000 ) ) ;
#361 = AXIS2_PLACEMENT_3D ( 'NONE', #44, #307, #32 ) ;
#362 = APPROVAL_DATE_TIME ( #341, #178 ) ;
#363 = APPROVAL_PERSON_ORGANIZATION ( #18, #178, #30 ) ;
ENDSEC;
END-ISO-10303-21;
