ISO-10303-21;
HEADER;
FILE_DESCRIPTION (( 'STEP AP203' ),
    '1' );
FILE_NAME ('378075.step',
    '2021-12-17T07:11:08',
    ( '' ),
    ( '' ),
    'SwSTEP 2.0',
    'SolidWorks 2019',
    '' );
FILE_SCHEMA (( 'CONFIG_CONTROL_DESIGN' ));
ENDSEC;

DATA;
#1 = VERTEX_POINT ( 'NONE', #115 ) ;
#2 = CARTESIAN_POINT ( 'NONE',  ( 0.0000000000000000000, 0.0000000000000000000, 0.0000000000000000000 ) ) ;
#3 = CARTESIAN_POINT ( 'NONE',  ( 7.904265098207355447E-16, -3.037740593167130893E-17, 0.2263871500692698213 ) ) ;
#4 = ADVANCED_FACE ( 'NONE', ( #333, #191 ), #288, .T. ) ;
#5 = DIRECTION ( 'NONE',  ( 1.000000000000000000, 0.0000000000000000000, -3.491481338843133355E-15 ) ) ;
#6 = AXIS2_PLACEMENT_3D ( 'NONE', #226, #55, #280 ) ;
#7 = PERSON_AND_ORGANIZATION ( #230, #272 ) ;
#8 = ADVANCED_BREP_SHAPE_REPRESENTATION ( '378075', ( #29, #156, #127 ), #247 ) ;
#9 = PERSON_AND_ORGANIZATION_ROLE ( 'design_owner' ) ;
#10 = ORIENTED_EDGE ( 'NONE', *, *, #88, .T. ) ;
#11 = AXIS2_PLACEMENT_3D ( 'NONE', #22, #133, #271 ) ;
#12 =( NAMED_UNIT ( * ) PLANE_ANGLE_UNIT ( ) SI_UNIT ( $, .RADIAN. ) );
#13 = COORDINATED_UNIVERSAL_TIME_OFFSET ( 1, 0, .AHEAD. ) ;
#14 = CC_DESIGN_PERSON_AND_ORGANIZATION_ASSIGNMENT ( #265, #350, ( #97 ) ) ;
#15 = CIRCLE ( 'NONE', #58, 1.499999999999995559 ) ;
#16 = CARTESIAN_POINT ( 'NONE',  ( 1.326762908760390423E-13, 0.0000000000000000000, 38.00000000000000000 ) ) ;
#17 = ORIENTED_EDGE ( 'NONE', *, *, #130, .F. ) ;
#18 = DIRECTION ( 'NONE',  ( -1.000000000000000000, 0.0000000000000000000, 3.488769366908801807E-15 ) ) ;
#19 = FACE_OUTER_BOUND ( 'NONE', #190, .T. ) ;
#20 = DIRECTION ( 'NONE',  ( -1.000000000000000000, 0.0000000000000000000, 3.491481338843133355E-15 ) ) ;
#21 = AXIS2_PLACEMENT_3D ( 'NONE', #165, #32, #64 ) ;
#22 = CARTESIAN_POINT ( 'NONE',  ( 3.655356635302013242E-16, 0.0000000000000000000, 0.1046935750346349586 ) ) ;
#23 = EDGE_LOOP ( 'NONE', ( #76 ) ) ;
#24 = EDGE_LOOP ( 'NONE', ( #325 ) ) ;
#25 = FACE_OUTER_BOUND ( 'NONE', #305, .T. ) ;
#26 = ADVANCED_FACE ( 'NONE', ( #218, #297 ), #48, .T. ) ;
#27 = DIRECTION ( 'NONE',  ( 1.000000000000000000, 0.0000000000000000000, -3.469446951953624444E-15 ) ) ;
#28 = CIRCLE ( 'NONE', #270, 0.2019999999999999851 ) ;
#29 = MANIFOLD_SOLID_BREP ( 'Corps-Déplacer/Copier1[1]', #50 ) ;
#30 = CC_DESIGN_APPROVAL ( #220, ( #329 ) ) ;
#31 = CC_DESIGN_SECURITY_CLASSIFICATION ( #231, ( #97 ) ) ;
#32 = DIRECTION ( 'NONE',  ( -3.491481338843133355E-15, 0.0000000000000000000, -1.000000000000000000 ) ) ;
#33 = DIRECTION ( 'NONE',  ( -3.491481338843133355E-15, 0.0000000000000000000, -1.000000000000000000 ) ) ;
#34 = CC_DESIGN_DATE_AND_TIME_ASSIGNMENT ( #132, #217, ( #231 ) ) ;
#35 = CIRCLE ( 'NONE', #279, 0.2949999999999999845 ) ;
#36 = CARTESIAN_POINT ( 'NONE',  ( -0.2019999999999992080, 0.0000000000000000000, 0.2263871500692705152 ) ) ;
#37 = PERSON_AND_ORGANIZATION_ROLE ( 'classification_officer' ) ;
#38 = PERSON_AND_ORGANIZATION ( #230, #272 ) ;
#39 = VERTEX_POINT ( 'NONE', #243 ) ;
#40 = ORIENTED_EDGE ( 'NONE', *, *, #88, .F. ) ;
#41 = CONICAL_SURFACE ( 'NONE', #236, 1.499999999999995559, 0.2617993877991426355 ) ;
#42 = CARTESIAN_POINT ( 'NONE',  ( -0.2019999999999999851, 0.0000000000000000000, 7.052792304463128825E-16 ) ) ;
#43 = APPROVAL_DATE_TIME ( #68, #220 ) ;
#44 = DIRECTION ( 'NONE',  ( -1.000000000000000000, 0.0000000000000000000, 3.491481338843132961E-15 ) ) ;
#45 = AXIS2_PLACEMENT_3D ( 'NONE', #255, #254, #77 ) ;
#46 = DIRECTION ( 'NONE',  ( 3.491481338843133355E-15, 0.0000000000000000000, 1.000000000000000000 ) ) ;
#47 = CARTESIAN_POINT ( 'NONE',  ( 4.248908462905346149E-16, 0.0000000000000000000, 0.1216935750346349737 ) ) ;
#48 = CYLINDRICAL_SURFACE ( 'NONE', #241, 0.2949999999999999289 ) ;
#49 = ADVANCED_FACE ( 'NONE', ( #327, #158 ), #203, .T. ) ;
#50 = CLOSED_SHELL ( 'NONE', ( #309, #183, #200, #82, #206, #283, #363, #169 ) ) ;
#51 = FACE_OUTER_BOUND ( 'NONE', #123, .T. ) ;
#52 = FACE_OUTER_BOUND ( 'NONE', #293, .T. ) ;
#53 = EDGE_LOOP ( 'NONE', ( #347 ) ) ;
#54 = CC_DESIGN_PERSON_AND_ORGANIZATION_ASSIGNMENT ( #93, #9, ( #356 ) ) ;
#55 = DIRECTION ( 'NONE',  ( -3.491481338843133355E-15, 0.0000000000000000000, -1.000000000000000000 ) ) ;
#56 = CALENDAR_DATE ( 2021, 17, 12 ) ;
#57 = FACE_OUTER_BOUND ( 'NONE', #227, .T. ) ;
#58 = AXIS2_PLACEMENT_3D ( 'NONE', #262, #318, #201 ) ;
#59 = DIRECTION ( 'NONE',  ( -1.000000000000000000, 0.0000000000000000000, 3.491481338843133355E-15 ) ) ;
#60 = FACE_BOUND ( 'NONE', #53, .T. ) ;
#61 = EDGE_CURVE ( 'NONE', #315, #315, #228, .T. ) ;
#62 = DESIGN_CONTEXT ( 'detailed design', #152, 'design' ) ;
#63 = APPROVAL_STATUS ( 'not_yet_approved' ) ;
#64 = DIRECTION ( 'NONE',  ( -1.000000000000000000, 0.0000000000000000000, 4.625929269271500311E-15 ) ) ;
#65 = CALENDAR_DATE ( 2021, 17, 12 ) ;
#66 = SECURITY_CLASSIFICATION_LEVEL ( 'unclassified' ) ;
#67 = ADVANCED_FACE ( 'NONE', ( #301, #51 ), #215, .T. ) ;
#68 = DATE_AND_TIME ( #155, #113 ) ;
#69 = FACE_OUTER_BOUND ( 'NONE', #140, .T. ) ;
#70 = PERSON_AND_ORGANIZATION ( #230, #272 ) ;
#71 = ORIENTED_EDGE ( 'NONE', *, *, #167, .F. ) ;
#72 = CARTESIAN_POINT ( 'NONE',  ( 0.0000000000000000000, 0.0000000000000000000, 0.0000000000000000000 ) ) ;
#73 = AXIS2_PLACEMENT_3D ( 'NONE', #234, #362, #261 ) ;
#74 = FACE_OUTER_BOUND ( 'NONE', #308, .T. ) ;
#75 = DIRECTION ( 'NONE',  ( 1.000000000000000000, 0.0000000000000000000, -3.491481338843133355E-15 ) ) ;
#76 = ORIENTED_EDGE ( 'NONE', *, *, #78, .F. ) ;
#77 = DIRECTION ( 'NONE',  ( -1.000000000000000000, 0.0000000000000000000, 3.488769366908801807E-15 ) ) ;
#78 = EDGE_CURVE ( 'NONE', #173, #173, #28, .T. ) ;
#79 = AXIS2_PLACEMENT_3D ( 'NONE', #2, #317, #59 ) ;
#80 = DIRECTION ( 'NONE',  ( -1.000000000000000000, 0.0000000000000000000, 3.407492542097303087E-15 ) ) ;
#81 = DIRECTION ( 'NONE',  ( -3.491481338843133355E-15, 0.0000000000000000000, -1.000000000000000000 ) ) ;
#82 = ADVANCED_FACE ( 'NONE', ( #304, #74 ), #112, .F. ) ;
#83 = CARTESIAN_POINT ( 'NONE',  ( -0.2090741737109213516, 0.0000000000000000000, 2.558819045102514345 ) ) ;
#84 = AXIS2_PLACEMENT_3D ( 'NONE', #106, #46, #75 ) ;
#85 = CARTESIAN_POINT ( 'NONE',  ( 1.326762908760390423E-13, 0.0000000000000000000, 38.00000000000000000 ) ) ;
#86 = DIRECTION ( 'NONE',  ( 3.491481338843133355E-15, 0.0000000000000000000, 1.000000000000000000 ) ) ;
#87 = APPLICATION_PROTOCOL_DEFINITION ( 'international standard', 'config_control_design', 1994, #134 ) ;
#88 = EDGE_CURVE ( 'NONE', #287, #287, #266, .T. ) ;
#89 = CALENDAR_DATE ( 2021, 17, 12 ) ;
#90 = AXIS2_PLACEMENT_3D ( 'NONE', #250, #330, #18 ) ;
#91 = COORDINATED_UNIVERSAL_TIME_OFFSET ( 1, 0, .AHEAD. ) ;
#92 = EDGE_LOOP ( 'NONE', ( #349 ) ) ;
#93 = PERSON_AND_ORGANIZATION ( #230, #272 ) ;
#94 = CC_DESIGN_PERSON_AND_ORGANIZATION_ASSIGNMENT ( #178, #296, ( #97 ) ) ;
#95 = EDGE_LOOP ( 'NONE', ( #10 ) ) ;
#96 = AXIS2_PLACEMENT_3D ( 'NONE', #222, #307, #194 ) ;
#97 = PRODUCT_DEFINITION_FORMATION_WITH_SPECIFIED_SOURCE ( 'ANY', '', #356, .NOT_KNOWN. ) ;
#98 = CYLINDRICAL_SURFACE ( 'NONE', #197, 0.2019999999999999851 ) ;
#99 = DIRECTION ( 'NONE',  ( -3.491481338843133355E-15, 0.0000000000000000000, -1.000000000000000000 ) ) ;
#100 = DIRECTION ( 'NONE',  ( -1.000000000000000000, 0.0000000000000000000, 3.491498521563489089E-15 ) ) ;
#101 = ORIENTED_EDGE ( 'NONE', *, *, #361, .T. ) ;
#102 = APPROVAL ( #121, 'UNSPECIFIED' ) ;
#103 = FACE_OUTER_BOUND ( 'NONE', #273, .T. ) ;
#104 = CARTESIAN_POINT ( 'NONE',  ( 0.0000000000000000000, 0.0000000000000000000, 0.0000000000000000000 ) ) ;
#105 = APPROVAL_PERSON_ORGANIZATION ( #260, #102, #172 ) ;
#106 = CARTESIAN_POINT ( 'NONE',  ( 0.0000000000000000000, 0.0000000000000000000, 0.0000000000000000000 ) ) ;
#107 = DIRECTION ( 'NONE',  ( -1.000000000000000000, 0.0000000000000000000, 3.488769366908801018E-15 ) ) ;
#108 = EDGE_LOOP ( 'NONE', ( #257 ) ) ;
#109 = EDGE_CURVE ( 'NONE', #1, #1, #175, .T. ) ;
#110 = EDGE_LOOP ( 'NONE', ( #212 ) ) ;
#111 = DIRECTION ( 'NONE',  ( -1.000000000000000000, 0.0000000000000000000, 5.782411586589379332E-15 ) ) ;
#112 = TOROIDAL_SURFACE ( 'NONE', #219, 1.174999999999999822, 1.000000000000000000 ) ;
#113 = LOCAL_TIME ( 8, 11, 8.000000000000000000, #211 ) ;
#114 = CARTESIAN_POINT ( 'NONE',  ( 0.0000000000000000000, 0.0000000000000000000, 0.0000000000000000000 ) ) ;
#115 = CARTESIAN_POINT ( 'NONE',  ( -0.2019999999999992080, 0.0000000000000000000, 0.2263871500692705152 ) ) ;
#116 = FACE_OUTER_BOUND ( 'NONE', #110, .T. ) ;
#117 = CLOSED_SHELL ( 'NONE', ( #146, #137, #49, #26, #4, #67, #237 ) ) ;
#118 = CARTESIAN_POINT ( 'NONE',  ( 7.904265098207355447E-16, -3.037740593167130893E-17, 0.2263871500692698213 ) ) ;
#119 = EDGE_CURVE ( 'NONE', #339, #339, #252, .T. ) ;
#120 = DIRECTION ( 'NONE',  ( 1.000000000000000000, 0.0000000000000000000, 0.0000000000000000000 ) ) ;
#121 = APPROVAL_STATUS ( 'not_yet_approved' ) ;
#122 = CARTESIAN_POINT ( 'NONE',  ( -0.1749999999999917455, 0.0000000000000000000, 2.300000000000000266 ) ) ;
#123 = EDGE_LOOP ( 'NONE', ( #328 ) ) ;
#124 = ORIENTED_EDGE ( 'NONE', *, *, #119, .T. ) ;
#125 = PERSON_AND_ORGANIZATION ( #230, #272 ) ;
#126 = CIRCLE ( 'NONE', #336, 0.2020000000000000129 ) ;
#127 = AXIS2_PLACEMENT_3D ( 'NONE', #185, #244, #120 ) ;
#128 = LOCAL_TIME ( 8, 11, 8.000000000000000000, #151 ) ;
#129 = DIRECTION ( 'NONE',  ( -3.491481338843133355E-15, 0.0000000000000000000, -1.000000000000000000 ) ) ;
#130 = EDGE_CURVE ( 'NONE', #316, #316, #164, .T. ) ;
#131 = EDGE_LOOP ( 'NONE', ( #216 ) ) ;
#132 = DATE_AND_TIME ( #56, #128 ) ;
#133 = DIRECTION ( 'NONE',  ( 3.491481338843133355E-15, 0.0000000000000000000, 1.000000000000000000 ) ) ;
#134 = APPLICATION_CONTEXT ( 'configuration controlled 3d designs of mechanical parts and assemblies' ) ;
#135 = DIRECTION ( 'NONE',  ( -3.491481338843133355E-15, 0.0000000000000000000, -1.000000000000000000 ) ) ;
#136 = CIRCLE ( 'NONE', #79, 0.2019999999999999851 ) ;
#137 = ADVANCED_FACE ( 'NONE', ( #69, #249 ), #98, .T. ) ;
#138 = DIRECTION ( 'NONE',  ( -1.000000000000000000, 0.0000000000000000000, 3.491481338843133355E-15 ) ) ;
#139 = EDGE_LOOP ( 'NONE', ( #334 ) ) ;
#140 = EDGE_LOOP ( 'NONE', ( #310 ) ) ;
#141 = CYLINDRICAL_SURFACE ( 'NONE', #177, 0.1749999999999998224 ) ;
#142 = CARTESIAN_POINT ( 'NONE',  ( -0.2019999999999993467, 0.0000000000000000000, 0.1753871500692705254 ) ) ;
#143 = APPROVAL_PERSON_ORGANIZATION ( #7, #220, #176 ) ;
#144 = DIRECTION ( 'NONE',  ( 3.491481338843133355E-15, 0.0000000000000000000, 1.000000000000000000 ) ) ;
#145 = FACE_OUTER_BOUND ( 'NONE', #92, .T. ) ;
#146 = ADVANCED_FACE ( 'NONE', ( #103 ), #326, .F. ) ;
#147 = AXIS2_PLACEMENT_3D ( 'NONE', #303, #351, #295 ) ;
#148 = VERTEX_POINT ( 'NONE', #322 ) ;
#149 = EDGE_CURVE ( 'NONE', #148, #148, #160, .T. ) ;
#150 = ORIENTED_EDGE ( 'NONE', *, *, #179, .F. ) ;
#151 = COORDINATED_UNIVERSAL_TIME_OFFSET ( 1, 0, .AHEAD. ) ;
#152 = APPLICATION_CONTEXT ( 'configuration controlled 3d designs of mechanical parts and assemblies' ) ;
#153 = PRODUCT_RELATED_PRODUCT_CATEGORY ( 'detail', '', ( #356 ) ) ;
#154 = ORIENTED_EDGE ( 'NONE', *, *, #179, .T. ) ;
#155 = CALENDAR_DATE ( 2021, 17, 12 ) ;
#156 = MANIFOLD_SOLID_BREP ( 'Corps-Déplacer/Copier1[2]', #117 ) ;
#157 = APPROVAL_STATUS ( 'not_yet_approved' ) ;
#158 = FACE_OUTER_BOUND ( 'NONE', #354, .T. ) ;
#159 = ORIENTED_EDGE ( 'NONE', *, *, #109, .F. ) ;
#160 = CIRCLE ( 'NONE', #294, 1.199999999999995293 ) ;
#161 = DIRECTION ( 'NONE',  ( -1.000000000000000000, 0.0000000000000000000, 5.782411586589379332E-15 ) ) ;
#162 = CARTESIAN_POINT ( 'NONE',  ( 8.030407079339206717E-15, 0.0000000000000000000, 2.299999999999999822 ) ) ;
#163 = CC_DESIGN_DATE_AND_TIME_ASSIGNMENT ( #207, #290, ( #329 ) ) ;
#164 = CIRCLE ( 'NONE', #147, 0.1749999999999997946 ) ;
#165 = CARTESIAN_POINT ( 'NONE',  ( 1.316288464743861212E-13, 0.0000000000000000000, 37.69999999999999574 ) ) ;
#166 = DIRECTION ( 'NONE',  ( -3.491481338843133355E-15, 0.0000000000000000000, -1.000000000000000000 ) ) ;
#167 = EDGE_CURVE ( 'NONE', #323, #323, #35, .T. ) ;
#168 = CARTESIAN_POINT ( 'NONE',  ( 2.575533043694764815E-14, 0.0000000000000000000, 7.376619817616270502 ) ) ;
#169 = ADVANCED_FACE ( 'NONE', ( #19 ), #214, .F. ) ;
#170 = FACE_OUTER_BOUND ( 'NONE', #108, .T. ) ;
#171 = AXIS2_PLACEMENT_3D ( 'NONE', #72, #274, #138 ) ;
#172 = APPROVAL_ROLE ( '' ) ;
#173 = VERTEX_POINT ( 'NONE', #258 ) ;
#174 = EDGE_CURVE ( 'NONE', #239, #239, #136, .T. ) ;
#175 = CIRCLE ( 'NONE', #320, 0.2020000000000000129 ) ;
#176 = APPROVAL_ROLE ( '' ) ;
#177 = AXIS2_PLACEMENT_3D ( 'NONE', #114, #81, #232 ) ;
#178 = PERSON_AND_ORGANIZATION ( #230, #272 ) ;
#179 = EDGE_CURVE ( 'NONE', #181, #181, #186, .T. ) ;
#180 = APPROVAL_DATE_TIME ( #321, #102 ) ;
#181 = VERTEX_POINT ( 'NONE', #267 ) ;
#182 = EDGE_LOOP ( 'NONE', ( #40 ) ) ;
#183 = ADVANCED_FACE ( 'NONE', ( #52, #57 ), #235, .F. ) ;
#184 = EDGE_LOOP ( 'NONE', ( #278 ) ) ;
#185 = CARTESIAN_POINT ( 'NONE',  ( 0.0000000000000000000, 0.0000000000000000000, 0.0000000000000000000 ) ) ;
#186 = CIRCLE ( 'NONE', #21, 1.499999999999995337 ) ;
#187 = EDGE_CURVE ( 'NONE', #319, #319, #126, .T. ) ;
#188 = CALENDAR_DATE ( 2021, 17, 12 ) ;
#189 = EDGE_LOOP ( 'NONE', ( #71 ) ) ;
#190 = EDGE_LOOP ( 'NONE', ( #352 ) ) ;
#191 = FACE_BOUND ( 'NONE', #312, .T. ) ;
#192 = EDGE_LOOP ( 'NONE', ( #154 ) ) ;
#193 = LOCAL_TIME ( 8, 11, 8.000000000000000000, #91 ) ;
#194 = DIRECTION ( 'NONE',  ( -1.000000000000000000, 0.0000000000000000000, 4.148583837942764508E-15 ) ) ;
#195 = DIRECTION ( 'NONE',  ( -3.491481338843133355E-15, 0.0000000000000000000, -1.000000000000000000 ) ) ;
#196 = ORIENTED_EDGE ( 'NONE', *, *, #174, .T. ) ;
#197 = AXIS2_PLACEMENT_3D ( 'NONE', #300, #353, #357 ) ;
#198 = CONICAL_SURFACE ( 'NONE', #302, 1.199999999999995293, 0.7853981633974453924 ) ;
#199 = FACE_OUTER_BOUND ( 'NONE', #210, .T. ) ;
#200 = ADVANCED_FACE ( 'NONE', ( #342, #25 ), #141, .T. ) ;
#201 = DIRECTION ( 'NONE',  ( -1.000000000000000000, 0.0000000000000000000, 3.469446951953624444E-15 ) ) ;
#202 = CYLINDRICAL_SURFACE ( 'NONE', #73, 1.499999999999995337 ) ;
#203 = CONICAL_SURFACE ( 'NONE', #11, 0.2949999999999999845, 1.047197551196599630 ) ;
#204 = FACE_OUTER_BOUND ( 'NONE', #269, .T. ) ;
#205 = MECHANICAL_CONTEXT ( 'NONE', #134, 'mechanical' ) ;
#206 = ADVANCED_FACE ( 'NONE', ( #335, #145 ), #41, .T. ) ;
#207 = DATE_AND_TIME ( #188, #285 ) ;
#208 = CC_DESIGN_APPROVAL ( #102, ( #231 ) ) ;
#209 = DATE_AND_TIME ( #65, #193 ) ;
#210 = EDGE_LOOP ( 'NONE', ( #150 ) ) ;
#211 = COORDINATED_UNIVERSAL_TIME_OFFSET ( 1, 0, .AHEAD. ) ;
#212 = ORIENTED_EDGE ( 'NONE', *, *, #225, .F. ) ;
#213 = EDGE_LOOP ( 'NONE', ( #17 ) ) ;
#214 = PLANE ( 'NONE',  #246 ) ;
#215 = CYLINDRICAL_SURFACE ( 'NONE', #171, 0.2019999999999999851 ) ;
#216 = ORIENTED_EDGE ( 'NONE', *, *, #78, .T. ) ;
#217 = DATE_TIME_ROLE ( 'classification_date' ) ;
#218 = FACE_OUTER_BOUND ( 'NONE', #189, .T. ) ;
#219 = AXIS2_PLACEMENT_3D ( 'NONE', #162, #277, #20 ) ;
#220 = APPROVAL ( #63, 'UNSPECIFIED' ) ;
#221 = CARTESIAN_POINT ( 'NONE',  ( 1.326762908760390423E-13, 0.0000000000000000000, 38.00000000000000000 ) ) ;
#222 = CARTESIAN_POINT ( 'NONE',  ( 8.934068945451832541E-15, 0.0000000000000000000, 2.558819045102513456 ) ) ;
#223 = ORIENTED_EDGE ( 'NONE', *, *, #109, .T. ) ;
#224 = DIRECTION ( 'NONE',  ( -3.491481338843133355E-15, 0.0000000000000000000, -1.000000000000000000 ) ) ;
#225 = EDGE_CURVE ( 'NONE', #268, #268, #15, .T. ) ;
#226 = CARTESIAN_POINT ( 'NONE',  ( 1.356337368695470332E-15, 0.0000000000000000000, 0.3884704619801516157 ) ) ;
#227 = EDGE_LOOP ( 'NONE', ( #101 ) ) ;
#228 = CIRCLE ( 'NONE', #90, 0.2019999999999999851 ) ;
#229 = CIRCLE ( 'NONE', #253, 0.1749999999999998224 ) ;
#230 = PERSON ( 'UNSPECIFIED', 'UNSPECIFIED', 'UNSPECIFIED', ('UNSPECIFIED'), ('UNSPECIFIED'), ('UNSPECIFIED') ) ;
#231 = SECURITY_CLASSIFICATION ( '', '', #66 ) ;
#232 = DIRECTION ( 'NONE',  ( -1.000000000000000000, 0.0000000000000000000, 3.491481338843132961E-15 ) ) ;
#233 = PLANE ( 'NONE',  #313 ) ;
#234 = CARTESIAN_POINT ( 'NONE',  ( 0.0000000000000000000, 0.0000000000000000000, 0.0000000000000000000 ) ) ;
#235 = TOROIDAL_SURFACE ( 'NONE', #6, 0.6749999999999998224, 0.5000000000000000000 ) ;
#236 = AXIS2_PLACEMENT_3D ( 'NONE', #168, #144, #27 ) ;
#237 = ADVANCED_FACE ( 'NONE', ( #170 ), #233, .T. ) ;
#238 = CARTESIAN_POINT ( 'NONE',  ( -0.2949999999999994849, 0.0000000000000000000, 0.1216935750346360007 ) ) ;
#239 = VERTEX_POINT ( 'NONE', #42 ) ;
#240 = CARTESIAN_POINT ( 'NONE',  ( -1.499999999999969580, 0.0000000000000000000, 7.376619817616275832 ) ) ;
#241 = AXIS2_PLACEMENT_3D ( 'NONE', #104, #99, #44 ) ;
#242 = ORIENTED_EDGE ( 'NONE', *, *, #61, .T. ) ;
#243 = CARTESIAN_POINT ( 'NONE',  ( -0.1749999999999984623, 0.0000000000000000000, 0.3884704619801522263 ) ) ;
#244 = DIRECTION ( 'NONE',  ( 0.0000000000000000000, 0.0000000000000000000, 1.000000000000000000 ) ) ;
#245 = APPROVAL_ROLE ( '' ) ;
#246 = AXIS2_PLACEMENT_3D ( 'NONE', #221, #332, #306 ) ;
#247 =( GEOMETRIC_REPRESENTATION_CONTEXT ( 3 ) GLOBAL_UNCERTAINTY_ASSIGNED_CONTEXT ( ( #282 ) ) GLOBAL_UNIT_ASSIGNED_CONTEXT ( ( #343, #12, #264 ) ) REPRESENTATION_CONTEXT ( 'NONE', 'WORKASPACE' ) );
#248 = CC_DESIGN_APPROVAL ( #359, ( #97 ) ) ;
#249 = FACE_OUTER_BOUND ( 'NONE', #131, .T. ) ;
#250 = CARTESIAN_POINT ( 'NONE',  ( 6.123609615397357712E-16, 0.0000000000000000000, 0.1753871500692698315 ) ) ;
#251 = DIRECTION ( 'NONE',  ( -1.000000000000000000, 0.0000000000000000000, 3.491498521563489878E-15 ) ) ;
#252 = CIRCLE ( 'NONE', #96, 0.2090741737109303167 ) ;
#253 = AXIS2_PLACEMENT_3D ( 'NONE', #284, #259, #80 ) ;
#254 = DIRECTION ( 'NONE',  ( -3.491481338843133355E-15, 0.0000000000000000000, -1.000000000000000000 ) ) ;
#255 = CARTESIAN_POINT ( 'NONE',  ( 6.123609615397357712E-16, 0.0000000000000000000, 0.1753871500692698315 ) ) ;
#256 = CARTESIAN_POINT ( 'NONE',  ( 7.904265098207355447E-16, 0.0000000000000000000, 0.2263871500692698213 ) ) ;
#257 = ORIENTED_EDGE ( 'NONE', *, *, #187, .F. ) ;
#258 = CARTESIAN_POINT ( 'NONE',  ( -0.2019999999999997908, 0.0000000000000000000, 0.05100000000000070449 ) ) ;
#259 = DIRECTION ( 'NONE',  ( -3.491481338843133355E-15, 0.0000000000000000000, -1.000000000000000000 ) ) ;
#260 = PERSON_AND_ORGANIZATION ( #230, #272 ) ;
#261 = DIRECTION ( 'NONE',  ( -1.000000000000000000, 0.0000000000000000000, 3.491481338843133355E-15 ) ) ;
#262 = CARTESIAN_POINT ( 'NONE',  ( 2.575533043694764815E-14, 0.0000000000000000000, 7.376619817616270502 ) ) ;
#263 = AXIS2_PLACEMENT_3D ( 'NONE', #47, #135, #251 ) ;
#264 =( NAMED_UNIT ( * ) SI_UNIT ( $, .STERADIAN. ) SOLID_ANGLE_UNIT ( ) );
#265 = PERSON_AND_ORGANIZATION ( #230, #272 ) ;
#266 = CIRCLE ( 'NONE', #263, 0.2949999999999999289 ) ;
#267 = CARTESIAN_POINT ( 'NONE',  ( -1.499999999999863665, 0.0000000000000000000, 37.70000000000000284 ) ) ;
#268 = VERTEX_POINT ( 'NONE', #240 ) ;
#269 = EDGE_LOOP ( 'NONE', ( #223 ) ) ;
#270 = AXIS2_PLACEMENT_3D ( 'NONE', #355, #331, #360 ) ;
#271 = DIRECTION ( 'NONE',  ( 1.000000000000000000, 0.0000000000000000000, -3.491498521563489089E-15 ) ) ;
#272 = ORGANIZATION ( 'UNSPECIFIED', 'UNSPECIFIED', '' ) ;
#273 = EDGE_LOOP ( 'NONE', ( #196 ) ) ;
#274 = DIRECTION ( 'NONE',  ( -3.491481338843133355E-15, 0.0000000000000000000, -1.000000000000000000 ) ) ;
#275 = ORIENTED_EDGE ( 'NONE', *, *, #167, .T. ) ;
#276 = CARTESIAN_POINT ( 'NONE',  ( 3.655356635302013242E-16, 0.0000000000000000000, 0.1046935750346349586 ) ) ;
#277 = DIRECTION ( 'NONE',  ( -3.491481338843133355E-15, 0.0000000000000000000, -1.000000000000000000 ) ) ;
#278 = ORIENTED_EDGE ( 'NONE', *, *, #61, .F. ) ;
#279 = AXIS2_PLACEMENT_3D ( 'NONE', #276, #129, #100 ) ;
#280 = DIRECTION ( 'NONE',  ( -1.000000000000000000, 0.0000000000000000000, 3.491481338843133355E-15 ) ) ;
#281 = PLANE ( 'NONE',  #337 ) ;
#282 = UNCERTAINTY_MEASURE_WITH_UNIT (LENGTH_MEASURE( 1.000000000000000082E-05 ), #343, 'distance_accuracy_value', 'NONE');
#283 = ADVANCED_FACE ( 'NONE', ( #116, #338 ), #202, .T. ) ;
#284 = CARTESIAN_POINT ( 'NONE',  ( 1.356337368695470332E-15, 0.0000000000000000000, 0.3884704619801516157 ) ) ;
#285 = LOCAL_TIME ( 8, 11, 8.000000000000000000, #13 ) ;
#286 = DIRECTION ( 'NONE',  ( -1.000000000000000000, 0.0000000000000000000, 3.488769366908801018E-15 ) ) ;
#287 = VERTEX_POINT ( 'NONE', #238 ) ;
#288 = CONICAL_SURFACE ( 'NONE', #45, 0.2019999999999999851, 1.047197551196600074 ) ;
#289 = CC_DESIGN_PERSON_AND_ORGANIZATION_ASSIGNMENT ( #38, #37, ( #231 ) ) ;
#290 = DATE_TIME_ROLE ( 'creation_date' ) ;
#291 = SHAPE_DEFINITION_REPRESENTATION ( #344, #8 ) ;
#292 = CARTESIAN_POINT ( 'NONE',  ( -0.2949999999999995959, 0.0000000000000000000, 0.1046935750346359856 ) ) ;
#293 = EDGE_LOOP ( 'NONE', ( #159 ) ) ;
#294 = AXIS2_PLACEMENT_3D ( 'NONE', #16, #195, #161 ) ;
#295 = DIRECTION ( 'NONE',  ( -1.000000000000000000, 0.0000000000000000000, 2.478176394252584494E-15 ) ) ;
#296 = PERSON_AND_ORGANIZATION_ROLE ( 'creator' ) ;
#297 = FACE_OUTER_BOUND ( 'NONE', #95, .T. ) ;
#298 = ORIENTED_EDGE ( 'NONE', *, *, #130, .T. ) ;
#299 = CC_DESIGN_PERSON_AND_ORGANIZATION_ASSIGNMENT ( #70, #324, ( #329 ) ) ;
#300 = CARTESIAN_POINT ( 'NONE',  ( 0.0000000000000000000, 0.0000000000000000000, 0.0000000000000000000 ) ) ;
#301 = FACE_OUTER_BOUND ( 'NONE', #184, .T. ) ;
#302 = AXIS2_PLACEMENT_3D ( 'NONE', #85, #166, #111 ) ;
#303 = CARTESIAN_POINT ( 'NONE',  ( 8.030407079339206717E-15, 0.0000000000000000000, 2.299999999999999822 ) ) ;
#304 = FACE_OUTER_BOUND ( 'NONE', #213, .T. ) ;
#305 = EDGE_LOOP ( 'NONE', ( #298 ) ) ;
#306 = DIRECTION ( 'NONE',  ( -1.000000000000000000, 0.0000000000000000000, 3.491481338843133355E-15 ) ) ;
#307 = DIRECTION ( 'NONE',  ( -3.491481338843133355E-15, 0.0000000000000000000, -1.000000000000000000 ) ) ;
#308 = EDGE_LOOP ( 'NONE', ( #124 ) ) ;
#309 = ADVANCED_FACE ( 'NONE', ( #204 ), #281, .F. ) ;
#310 = ORIENTED_EDGE ( 'NONE', *, *, #174, .F. ) ;
#311 = DIRECTION ( 'NONE',  ( 3.491481338843133355E-15, 0.0000000000000000000, 1.000000000000000000 ) ) ;
#312 = EDGE_LOOP ( 'NONE', ( #242 ) ) ;
#313 = AXIS2_PLACEMENT_3D ( 'NONE', #118, #86, #5 ) ;
#314 = APPROVAL_PERSON_ORGANIZATION ( #125, #359, #245 ) ;
#315 = VERTEX_POINT ( 'NONE', #142 ) ;
#316 = VERTEX_POINT ( 'NONE', #122 ) ;
#317 = DIRECTION ( 'NONE',  ( -3.491481338843133355E-15, 0.0000000000000000000, -1.000000000000000000 ) ) ;
#318 = DIRECTION ( 'NONE',  ( -3.491481338843133355E-15, 0.0000000000000000000, -1.000000000000000000 ) ) ;
#319 = VERTEX_POINT ( 'NONE', #36 ) ;
#320 = AXIS2_PLACEMENT_3D ( 'NONE', #358, #224, #107 ) ;
#321 = DATE_AND_TIME ( #89, #345 ) ;
#322 = CARTESIAN_POINT ( 'NONE',  ( -1.199999999999862732, 0.0000000000000000000, 38.00000000000000711 ) ) ;
#323 = VERTEX_POINT ( 'NONE', #292 ) ;
#324 = PERSON_AND_ORGANIZATION_ROLE ( 'creator' ) ;
#325 = ORIENTED_EDGE ( 'NONE', *, *, #361, .F. ) ;
#326 = PLANE ( 'NONE',  #84 ) ;
#327 = FACE_BOUND ( 'NONE', #23, .T. ) ;
#328 = ORIENTED_EDGE ( 'NONE', *, *, #187, .T. ) ;
#329 = PRODUCT_DEFINITION ( 'UNKNOWN', '', #97, #62 ) ;
#330 = DIRECTION ( 'NONE',  ( -3.491481338843133355E-15, 0.0000000000000000000, -1.000000000000000000 ) ) ;
#331 = DIRECTION ( 'NONE',  ( -3.491481338843133355E-15, 0.0000000000000000000, -1.000000000000000000 ) ) ;
#332 = DIRECTION ( 'NONE',  ( -3.491481338843133355E-15, 0.0000000000000000000, -1.000000000000000000 ) ) ;
#333 = FACE_OUTER_BOUND ( 'NONE', #182, .T. ) ;
#334 = ORIENTED_EDGE ( 'NONE', *, *, #119, .F. ) ;
#335 = FACE_BOUND ( 'NONE', #139, .T. ) ;
#336 = AXIS2_PLACEMENT_3D ( 'NONE', #256, #33, #286 ) ;
#337 = AXIS2_PLACEMENT_3D ( 'NONE', #3, #311, #340 ) ;
#338 = FACE_OUTER_BOUND ( 'NONE', #192, .T. ) ;
#339 = VERTEX_POINT ( 'NONE', #83 ) ;
#340 = DIRECTION ( 'NONE',  ( 1.000000000000000000, 0.0000000000000000000, -3.491481338843133355E-15 ) ) ;
#341 = COORDINATED_UNIVERSAL_TIME_OFFSET ( 1, 0, .AHEAD. ) ;
#342 = FACE_OUTER_BOUND ( 'NONE', #24, .T. ) ;
#343 =( LENGTH_UNIT ( ) NAMED_UNIT ( * ) SI_UNIT ( .MILLI., .METRE. ) );
#344 = PRODUCT_DEFINITION_SHAPE ( 'NONE', 'NONE',  #329 ) ;
#345 = LOCAL_TIME ( 8, 11, 8.000000000000000000, #341 ) ;
#346 = APPLICATION_PROTOCOL_DEFINITION ( 'international standard', 'config_control_design', 1994, #152 ) ;
#347 = ORIENTED_EDGE ( 'NONE', *, *, #149, .T. ) ;
#348 = APPROVAL_DATE_TIME ( #209, #359 ) ;
#349 = ORIENTED_EDGE ( 'NONE', *, *, #225, .T. ) ;
#350 = PERSON_AND_ORGANIZATION_ROLE ( 'design_supplier' ) ;
#351 = DIRECTION ( 'NONE',  ( -3.491481338843133355E-15, 0.0000000000000000000, -1.000000000000000000 ) ) ;
#352 = ORIENTED_EDGE ( 'NONE', *, *, #149, .F. ) ;
#353 = DIRECTION ( 'NONE',  ( -3.491481338843133355E-15, 0.0000000000000000000, -1.000000000000000000 ) ) ;
#354 = EDGE_LOOP ( 'NONE', ( #275 ) ) ;
#355 = CARTESIAN_POINT ( 'NONE',  ( 1.780655482809997982E-16, 0.0000000000000000000, 0.05099999999999999672 ) ) ;
#356 = PRODUCT ( '378075', '378075', '', ( #205 ) ) ;
#357 = DIRECTION ( 'NONE',  ( -1.000000000000000000, 0.0000000000000000000, 3.491481338843133355E-15 ) ) ;
#358 = CARTESIAN_POINT ( 'NONE',  ( 7.904265098207355447E-16, 0.0000000000000000000, 0.2263871500692698213 ) ) ;
#359 = APPROVAL ( #157, 'UNSPECIFIED' ) ;
#360 = DIRECTION ( 'NONE',  ( -1.000000000000000000, 0.0000000000000000000, 3.488769366908801807E-15 ) ) ;
#361 = EDGE_CURVE ( 'NONE', #39, #39, #229, .T. ) ;
#362 = DIRECTION ( 'NONE',  ( -3.491481338843133355E-15, 0.0000000000000000000, -1.000000000000000000 ) ) ;
#363 = ADVANCED_FACE ( 'NONE', ( #199, #60 ), #198, .T. ) ;
ENDSEC;
END-ISO-10303-21;
